PrimaNota.ru - самый крупный в мире бесплатный архив песенных текстов, аккордов, табулатур и нот


Shellac - Prayer to god correct version - таба, видео

Регистрация Запомнить меня
Войти через:  Facebook Google Twitter Vk Yandex Mail.ru

Shellac - Prayer to god correct version - таба, видео

Печатать
Просмотров: 108
Уроки эстрадного вокала в Санкт-Петербурге


Tabbed by: Kalim
Email: Ajent13@gmail.com

Tuning: standard

the first time it does this:

e|--0---0---0---0---0---0---0---0--------------|
B|--0---0---1---1---0---0---0---0--------------|
G|--0---0---2---0---0---0---0---0--------------|
D|--2---2---2---2---2---2---2---2--------------|
A|--2---3---0---3---2---3---3---2--------------|
E|--0---3-----------0---3---3---0--------------|

then it does this 4 times i think

e|--0---0---0---0---0---0---1---0--------------|
B|--0---0---1---1---0---0---1---0--------------|
G|--0---0---2---0---0---0---2---0--------------|
D|--2---2---2---2---2---2---3---2--------------|
A|--2---3---0---3---2---3---3---2--------------|
E|--0---3-----------0---3---1---0--------------|

or until the lyric that goes someone or other might come and
fucking kill him and then after that it goes back to the first
pattern. you might just have to listen to it but i know for sure
the last time it ends with the second pattern

Добавлено: 08.02.2014
Другие материалы по этой песне:
  • Аккорды и текст

Страница создана 08.02.2014
http://primanota.ru/shellac/prayer-to-god-correct-version-chords.htm
Привет, Гость.
Предлагаем пройти революционный курс по гитаре.
Подарок от PrimaNota.Ru, забирай!