PrimaNota.ru - самый крупный в мире бесплатный архив песенных текстов, аккордов, табулатур и нот


Shellac - Prayer To God - аккорды и текст, бас-таба, видео

Регистрация Запомнить меня
Войти через:  Facebook Google Twitter Vk Yandex Mail.ru

Shellac - Prayer To God - аккорды и текст, бас-таба, видео

Печатать
Просмотров: 238
Prayer To God
Shellac
Band: Shellac
Song: Prayer to God
Album: 1000 Hurts

davidgiglio@hotmail.com for mistakes
tabbed by D Giglio

the song is

e----------------------
b--------1-------------
g------2-0-------5-----
d--2-5-2-2---2-5-5-2---
a--2-5-0-3---2-5-3-2---
E--0-3-------0-3---0---

except the last eight notes which goes like

e----------------------
b----------------1-----
g------2-5-------0-----
d--2-5-2-5---2-5-2-2---
a--2-5-0-3---2-5-3-2---
E--0-3-------0-3---0---
     
Добавлено: 03.07.2013
Другие материалы по этой песне:

Страница создана 14.04.2012
http://primanota.ru/shellac/prayer-to-god-chords.htm
Привет, Гость.
Предлагаем пройти революционный курс по гитаре.
Подарок от PrimaNota.Ru, забирай!