PrimaNota.ru - самый крупный в мире бесплатный архив песенных текстов, аккордов, табулатур и нот


Shellac - Doris - аккорды и текст, таба, видео

Регистрация Запомнить меня
Войти через:  Facebook Google Twitter Vk Yandex Mail.ru

Shellac - Doris - аккорды и текст, таба, видео

Печатать
Просмотров: 124
Doris
Shellac
		   "Doris" from Shellac's "Uranus" 7". Tabbed by Joel Nicholas, Leicester,
UK.

D------------5---------------------5---------------------5----------
A----7---8-------8-7-------7---8-------8-7-------7---8-------8-7----
E--5---5---5---5---------5---5---5---5---------5---5---5---5--------

D------------5---------------------3---------------------3-----------
A----7---8-------8-7-7\5---5---6-------6-5-------5---6-------6-5-5/8-
E--5---5---5---5---------3---3---3---3---------3---3---3---3---------

D------------6---------------------6---------------------4-------
A----8---9-------9-8-------8---9-------9-8-8\6---6---7-------7-6-
E--6---6---6---6---------6---6---6---6---------4---4---4---4-----

D------------4----------------------7---------------------7------------
A----6---7-------7-6-6/9---9---10-------10-9-----9---10-------10-9-9\7-
E--4---4---4---4---------7---7----7---7--------7---7----7---7----------

D------------5---------------------5------------------------8--------
A----7---8-------8-7-------7---8-------8-7-7/10---10---11-------11-10-
E--5---5---5---5---------5---5---5---5----------8----8----8---8-------

D--------------8------------------------6------------------6------------
A----10---11-------11-10-10\8---8---9-------9-8----8---9-------9-8-8/11-
E--8----8----8---8------------6---6---6---6------6---6---6---6----------

D--------------9----------------------9----------------------9---------
A----11---12-------12-11----11---12-------12-11----11---12-------12-11-
E--9----9----9---9--------9----9----9---9--------9----9----9---9-------

D--------------9----------|
A----11---12-------12-11--|
E--9----9----9---9--------|

Chorus:

   D     D#    G
e--5-----6-----10---|
B--7-----8-----12---|
G--7-----8-----12---|  I'm not sure if i've written this down correctly,
D--7-----8-----12---|  but you get the picture. Also, after the G
A--5-----6-----10---|  there's a noisy bit which you should be able to
E--x-----x------x---|  get if you've got enough distortion.

For the other verses, you play the same riff but in this order ( number
indicates where the bottom E is fingered):

second verse: 7 7 4 4 6 6 3 3 3 3
third verse: 6 9 6 9 9 9 9

i think the outro is D D# D D# D D# D, but i can't remember (it is easy
though).     
Добавлено: 17.06.2013
Другие материалы по этой песне:
  • Аккорды и текст

Страница создана 21.03.2012
http://primanota.ru/shellac/doris-chords.htm
Привет, Гость.
Предлагаем пройти революционный курс по гитаре.
Подарок от PrimaNota.Ru, забирай!