PrimaNota.ru - самый крупный в мире бесплатный архив песенных текстов, аккордов, табулатур и нот


Shellac - Disgrace - аккорды и текст, видео

Регистрация Запомнить меня
Войти через:  Facebook Google Twitter Vk Yandex Mail.ru

Shellac - Disgrace - аккорды и текст, видео

Печатать
Просмотров: 92
Disgrace
Shellac
Band: Shellac
Song:  Disgrace=20
Album:  Terraform

davidgiglio@hotmail.com for mistakes
tabbed by D Giglio, 13 Aug 01

part a:

e-------------------------------------
b-----10-------8----------------------
g------9-------7----------------------
d-------------------------------------
a------7-------5----------------------
E------8-------6----------------------

these are the two chords used during the first section,
they get repeated later in the song. =20

part b:

e------------------------------------
b------------------------------------
g------------------------------------
d--4-5-7-10-9-4-5-7/10---------------
a--4-5-7-10-9-4-5-7/10---------------
E--2-3-5--8-7-2-3-5/8----------------

this is the first part of the second section, just slide through
the whole thing.  then it changes, to become

part c:

e------------------------
b------------------------
g------------------------
d------------------------
a--4-5-7-9/10-4-5-7------
E--2-3-5-7/8--2-3-5------

play this kind of muted except for the slide part.

It kind of does part b&c twice,
then everything cuts out except the drums, and then its=20
back to part a, then it does this

e-----------------------------------------
b-----------------------------------------
g-----------------------------------------
d-10^--0---10^---0---8-0-8-0-8-0----------
a--7---7----7----7---5-5-5-5-5-5----------
E--8---8----8----8---6-6-6-6-6-6----------

This is kind of it, but your on your own, he
might be taking some fingers off the lower two notes
at various times =20

and then there's a long drum fill
and the song ends with

g--0---
a--5---
E--3---
     
Добавлено: 06.07.2013
Другие материалы по этой песне:
  • Аккорды и текст

Страница создана 06.07.2013
http://primanota.ru/shellac/disgrace-chords.htm
Привет, Гость.
Предлагаем пройти революционный курс по гитаре.
Подарок от PrimaNota.Ru, забирай!