PrimaNota.ru - самый крупный в мире бесплатный архив песенных текстов, аккордов, табулатур и нот


Sheldon Harnick And Jerry Bock - If I Were A Rich Man - бас-таба, видео

Регистрация Запомнить меня
Войти через:  Facebook Google Twitter Vk Yandex Mail.ru

Sheldon Harnick And Jerry Bock - If I Were A Rich Man - бас-таба, видео

Печатать
Просмотров: 57
If I Were A Rich Man
By
Sheldon Harnick and Jerry Bock
From Fiddler On The Roof

Tab By Ken

G |----|----|--0-----0-------------------|--------------0-----0-------|
D |----|----|-----3-----3--2-------------|--------2--3-----3-----3----|
A |----|----|--------------------3-------|----------------------------|
E |----|----|----------------------------|----------------------------|


--------0--2--3--2--3--2----|--0-------------|--1--0----------|
--2--3----------------------|----------------|--------4--3----|
----------------------------|----------------|----------------|
----------------------------|----------------|----------------|


----------------------------|----------------------------|--0-------------|
--1--0-----0--1-------------|--1--0-----0--1-------------|----------------|
--------3-------------------|--------3-----------3-------|----------------|
----------------------------|----------------------------|----------------|


--0-----0-------------------|--------------0-----0-------|
-----3-----3--2-------------|--------2--3-----3-----3----|
--------------------3-------|----------------------------|
----------------------------|----------------------------|


--------0--2--3--2--3--2----|--0-------------|--1--0----------|
--2--3----------------------|----------------|--------4--3----|
----------------------------|----------------|----------------|
----------------------------|----------------|----------------|


----------------------------|----------------------------|-----------0----|
--1--0-----0--1-------------|--1--0-----1--0--------0----|-----2--3-------|
--------3-------------------|--------3--------3--2-------|--3-------------|
----------------------------|----------------------------|----------------|


--1--1--1--1----|--1-----------3-----5-----3-----------1-------------|
----------------|----------------------------------------------------|
----------------|----------------------------------------------------|
----------------|----------------------------------------------------|


--0-----0--0--0--0--0--0----|--0--------0----|----------------|
----------------------------|----------------|--3--3--3--3----|
----------------------------|----------------|----------------|
----------------------------|----------------|----------------|


--------0--1--0-------------|-------|-----------0----|--1--1--1--1----|
--3--------------------3----|--2----|-----2--3-------|----------------|
----------------------------|-------|----------------|----------------|
----------------------------|-------|----------------|----------------|


--1-----------3-----5-----3-----------1-------------|
----------------------------------------------------|
----------------------------------------------------|
----------------------------------------------------|


--0-----0--0--0--0--0--0----|--0--------0----|----------------|----------------|
----------------------------|----------------|--3--3--3--3----|--1--0-----1----|
----------------------------|----------------|----------------|--------3-------|
----------------------------|----------------|----------------|----------------|


--0L---|--0-----12------|--0-----0-------------------|
-------|----------------|-----3-----3--2-------------|
-------|----------------|--------------------3-------|
-------|----------------|----------------------------|


--------------0-----0-------|--------0--2--3--2--3--2----|--0-------------|
--------2--3-----3-----3----|--2--3----------------------|----------------|
----------------------------|----------------------------|----------------|
----------------------------|----------------------------|----------------|


--1--0----------|----------------------------|----------------------------|
--------4--3----|--1--0-----0--1-------------|--1--0-----0--1-------------|
----------------|--------3-------------------|--------3-----------3-------|
----------------|----------------------------|----------------------------|


--0-------------|--0-----0-------------------|--------------0-----0-------|
----------------|-----3-----3--2-------------|--------2--3-----3-----3----|
----------------|--------------------3-------|----------------------------|
----------------|----------------------------|----------------------------|


--------0--2--3--2--3--2----|--0-------------|--1--0----------|
--2--3----------------------|----------------|--------4--3----|
----------------------------|----------------|----------------|
----------------------------|----------------|----------------|


----------------------------|----------------------------|----------------|----|
--1--0-----0--1-------------|--1--0-----1--0--------0----|----------------|----|
--------3-------------------|--------3--------3--2-------|--3-------------|----|
----------------------------|----------------------------|----------------|----|
Добавлено: 28.03.2016
Другие материалы по этой песне:
  • Аккорды и текст

Страница создана 28.03.2016
http://primanota.ru/sheldon-harnick-and-jerry-bock/if-i-were-a-rich-man-chords.htm
Привет, Гость.
Предлагаем пройти революционный курс по гитаре.
Подарок от PrimaNota.Ru, забирай!