PrimaNota.ru - самый крупный в мире бесплатный архив песенных текстов, аккордов, табулатур и нот


Sheldon Bangera - Pyaar Toh Andha Hai - таба, видео

Регистрация Запомнить меня
Войти через:  Facebook Google Twitter Vk Yandex Mail.ru

Sheldon Bangera - Pyaar Toh Andha Hai - таба, видео

Печатать
Просмотров: 69
-------------------------------------------------------------------------------
                 Pyaar Toh Andha Hai - Sheldon Bangera
-------------------------------------------------------------------------------
Tabbed by: Raja
E-mail:slmn.rajb@gmail.com

Tuning: Standard

Intro

e|-----------0----------------0-----------------0----------------|
B|------ --0--------0-------0--------0--------0------------------|
G|-------8----------------6-----------------4--------------------|
D|-----9----------------7-----------------6----------------------|
A|---------------------------------------------------------------|
E|---------------------------------------------------------------|
Добавлено: 02.06.2016
Другие материалы по этой песне:
  • Аккорды и текст

Страница создана 02.06.2016
http://primanota.ru/sheldon-bangera/pyaar-toh-andha-hai-chords.htm
Привет, Гость.
Предлагаем пройти революционный курс по гитаре.
Подарок от PrimaNota.Ru, забирай!