PrimaNota.ru - самый крупный в мире бесплатный архив песенных текстов, аккордов, табулатур и нот


Shel - Modern Day Holocaust - таба, видео

Регистрация Запомнить меня
Войти через:  Facebook Google Twitter Vk Yandex Mail.ru

Shel - Modern Day Holocaust - таба, видео

Печатать
Просмотров: 52
"Modern Day Holocaust" by Shel. (not yet released) tabbed by Greg Burmeister

in dropped d tuning. DADGBE
Its a pretty basic song, just use some heavy distortion the whole time and 
it should sound good.

Intro: repeat 4 times and on the last time hold the 15th fret
E ----------------------------------------------------------------------
B ----------------------------------------------------------------------
G ----------------------------------------------------------------------
D ----------------------------------------------------------------------
A ----------------------------------------------------------------------
D -h14-p12-p0-h14-p12-p0-h14-p12-p0-h14-p12-p0-h15-p12-p0-h12-----------

Chorus:
E ----------------------------------------------------------------------
B ----------------------------------------------------------------------
G ----------------------------------------------------------------------
D -0-0-0-3-3-3-2-2-2-3-3-3-5-5-5-5-0-0-0-3-3-3-2-2-2-3-3-3-7-7-7-7------
A -0-0-0-3-3-3-2-2-2-3-3-3-5-5-5-5-0-0-0-3-3-3-2-2-2-3-3-3-7-7-7-7------
D -0-0-0-3-3-3-2-2-2-3-3-3-5-5-5-5-0-0-0-3-3-3-2-2-2-3-3-3-7-7-7-7------

Verse: (palm muted) repeat 8 times
E ----------------------------------------------------------------------
B ----------------------------------------------------------------------
G ----------------------------------------------------------------------
D ----------------------------------------------------------------------
A ----------------------------------------------------------------------
D -14--12--0--14--12--0--14--12--0--14--12--0--15--12--0--12------------

Ending: repeat 4 times (do this 8 times) total of 32. On the 6th and 7th 
sets of 4, play low D string only.
E ----------------------------------------------------------------------
B ----------------------------------------------------------------------
G ----------------------------------------------------------------------
D -0-0-0-5-3-0-0-0-0-5-3-0-0-0-5-3-0-0-0-0-8-7-8-10---------------------
A -0-0-0-5-3-0-0-0-0-5-3-0-0-0-5-3-0-0-0-0-8-7-8-10---------------------
D -0-0-0-5-3-0-0-0-0-5-3-0-0-0-5-3-0-0-0-0-8-7-8-10---------------------

On the 30th and 32nd time:
E ----------------------------------------------------------------------
B ----------------------------------------------------------------------
G ----------------------------------------------------------------------
D --0--0--0--5--3--0--0--0--0--5--3--0--0--0--5--3--0--0--0--0--1--1--1-
A --0--0--0--5--3--0--0--0--0--5--3--0--0--0--5--3--0--0--0--0--1--1--1-
D --0--0--0--5--3--0--0--0--0--5--3--0--0--0--5--3--0--0--0--0--1--1--1-


Order:
Intro
Chorus
Verse
Chorus
Verse
Chorus
Verse
Ending

     
Добавлено: 18.11.2013
Другие материалы по этой песне:
  • Аккорды и текст

Страница создана 18.11.2013
http://primanota.ru/shel/modern-day-holocaust-chords.htm
Привет, Гость.
Предлагаем пройти революционный курс по гитаре.
Подарок от PrimaNota.Ru, забирай!