PrimaNota.ru - самый крупный в мире бесплатный архив песенных текстов, аккордов, табулатур и нот


Sheer Terror - Roses - таба, видео

Регистрация Запомнить меня
Войти через:  Facebook Google Twitter Vk Yandex Mail.ru

Sheer Terror - Roses - таба, видео

Печатать
Просмотров: 114



ARTIST:     Sheer Terror
SONG:       Roses
ALBUM:      Just Can't Hate Enough


TABBED BY:  Psychiropractor



Ringing in the new year with Sheer Terror's most festive, feelgood song: "Roses,"
NYHC's answer to Auld Lang Syne.

You know the drill: listen to the song to catch the timing and the fine-detail palm
muting, and noodle out your own guitar solo (I didn't attempt to tab that, since I'm
a half-assed lead player at best). Standard tuning, crank the distortion, watch me
for the changes, and try to keep up :)





Intro

 e |-----------------|-----------------|-----------------|-----------------|
 B |-----------------|-----------------|-----------------|-----------------|
 G |-----------------|-----------------|-----------------|-----------------|
 D |-----------------|-----------------|-----------------|-----------------|
 A |-6-------7---4---|-6-------7---10--|-4-------7---4---|-6---7---4---6---|
 E |-4-------5---2---|-4-------5---8---|-4-------5---2---|-4---5---2---4---|
                                                           ^^^^^^^^^^^^^^^ - triplets


Verse 1

 e |-----------------|-----------------|-----------------|-----------------|
 B |-----------------|-----------------|-----------------|-----------------|
 G |-----------------|-----------------|-----------------|-----------------|
 D |-----------------|-----------------|-----------------|-----------------|
 A |-6-------6-------|-7-------7-------|-4-------4-------|-6-------6-------|
 E |-4-------4-------|-5-------5-------|-2-------2-------|-4-------4-------|


     Now I'm tired of trying to understand, so ignorant I'll remain.
     I feel repressed, and I'm not impressed by the games you children play.
     Some of you may bask in the sun and some of you may hide.
     Whenever I hear your laughing voices, I just want to cry.



Break 1

 e |-----------------|-----------------|-----------------|-----------------|
 B |-----------------|-----------------|-----------------|-----------------|
 G |-----------------|-----------------|-----------------|-----------------|
 D |-----------------|-----------------|-9---------------|-----------------|
 A |-6---------------|-9---------------|-7---------------|-11--------------|
 E |-4---------------|-7---------------|-----------------|-9---------------|


 e |-----------------|-----------------|-----------------|-----------------|
 B |-----------------|-----------------|-----------------|-----------------|
 G |-----------------|-----------------|-----------------|-----------------|
 D |-----------------|-----------------|-9-------9--8--7-|-----------------|
 A |-6---------------|-9---------------|-7-------7--6--5-|-11--------------|
 E |-4---------------|-7---------------|-----------------|-9---------------|



Verse 2

 e |-----------------|-----------------|-----------------|-----------------|
 B |-----------------|-----------------|-----------------|-----------------|
 G |-----------------|-----------------|-----------------|-----------------|
 D |-----------------|-----------------|-----------------|-----------------|
 A |-6-------6-------|-7-------7-------|-4-------4-------|-7-6-----7-6-----|
 E |-4-------4-------|-5-------5-------|-2-------2-------|-5-4-----5-4-----|


     So many years of nothingness, yet you seem so content.
     You forget to realize, it's all lies, of deceit.
     Call me a bastard, call me afraid, I'll just turn a deaf ear.
     For all I know is that for the roses, it's been a wonderful year.



Break 2

 e |-----------------|-----------------|-----------------|-----------------|
 B |-----------------|-----------------|-----------------|-----------------|
 G |-----------------|-----------------|-----------------|-----------------|
 D |-----------------|-----------------|-----------------|-----------------|
 A |-10--9---7---6---|-4---3---6---6---|-10--9---7---6---|-4---3---6-------|
 E |-8---7---5---4---|-2---1---4---4---|-8---7---5---4---|-2---1---4-------|


 e |-----------------|-----------------|-----------------|---------|
 B |-----------------|-----------------|-----------------|---------|
 G |-----------------|-----------------|-----------------|---------|
 D |-----------------|-----------------|-----------------|---------|
 A |-10--9---7---6---|-4---3---6---6---|-10--9---7---6---|-4---3---|
 E |-8---7---5---4---|-2---1---4---4---|-8---7---5---4---|-2---1---|



Verse 3

 e |-----------------|-----------------|-----------------|-----------------|
 B |-----------------|-----------------|-----------------|-----------------|
 G |-----------------|-----------------|-----------------|-----------------|
 D |-----------------|-----------------|-----------------|-----------------|
 A |-6---------------|-7---------------|-4---------------|-6-------7---9---|
 E |-4---------------|-5---------------|-2---------------|-4-------5---7---|


 e |-----------------|-----------------|-----------------|-----------------|
 B |-----------------|-----------------|-----------------|-----------------|
 G |-----------------|-----------------|-----------------|-----------------|
 D |-----------------|-----------------|-----------------|-----------------|
 A |-11--------------|-7---------------|-9---------------|-6-------7---9---|
 E |-9---------------|-5---------------|-7---------------|-4-------5---7---|


 e |-----------------|-----------------|-----------------|-----------------|
 B |-----------------|-----------------|-----------------|-----------------|
 G |-----------------|-----------------|-----------------|-----------------|
 D |-----------------|-9---------------|-----------------|-----------------|
 A |-11--------------|-7---------------|-7---------------|-6-------7---9---|
 E |-9---------------|-----------------|-5---------------|-4-------5---7---|


     Now the party's over, and your host has died.
     Kick your shoes off as you walk through the door, it's time to come inside.
     The world is crumbling, a drunkard stumbling.
     A new year's come alive.



Solo/outro

 e |-----------------|-----------------|-----------------|-----------------|
 B |-----------------|-----------------|-----------------|-----------------|
 G |-----------------|-----------------|-----------------|-----------------|
 D |-----------------|-----------------|-----------------|-----------------|
 A |-11------11------|-9-------9-------|-7-------7-------|-6---7-6---7---9-|
 E |-9-------9-------|-7-------7-------|-5-------5-------|-4---5-4---5---7-|


     It's been a wonderful year...



End

 e |-----------------|
 B |-----------------|
 G |-----------------|
 D |-----------------|
 A |-11-11-11--------|
 E |-9--9--9---------|







That's about the short and skinny of it. Have fun!



Добавлено: 12.08.2015
Вам также может быть интересно:
Другие материалы по этой песне:
  • Аккорды и текст

Страница создана 12.08.2015
http://primanota.ru/sheer-terror/roses-chords.htm
Привет, Гость.
Предлагаем пройти революционный курс по гитаре.
Подарок от PrimaNota.Ru, забирай!