PrimaNota.ru - самый крупный в мире бесплатный архив песенных текстов, аккордов, табулатур и нот


Sheer Terror - Just Cant Hate Enough - таба, видео

Регистрация Запомнить меня
Войти через:  Facebook Google Twitter Vk Yandex Mail.ru

Sheer Terror - Just Cant Hate Enough - таба, видео

Печатать
Просмотров: 111
-------------------------------------------------------------------------------
                     JUST CAN'T HATE ENOUGH - Sheer Terror
-------------------------------------------------------------------------------
Tabbed by: min0r_threat
E-mail: ngrantj@yahoo.com
Date: 8/8/2012; EDIT 8/14/12

SHEER TERROR WEBSITE: http://thorprecords.com/bands/sheerterror.php

Tuning: Standard

This is all by ear, so I'm not sure if its 100% there, but I can't find any
tabs or Youtube covers of this song at all, so this is hopefully the best
representation out there.

INTRO
e|-19~~~~~~~~~~~~~(19)-(hold+vibrato for a bit)------------------------------|
B|---------------------------------------------------------------------------|
G|---------------------------------------------------------------------------|
D|---------------------------------------------------------------------------|
A|---------------------------------------------------------------------------|
E|---------------------------------------------------------------------------|

e|---------------------------------------------------------------------------|
B|---------------------------------------------------------------------------|
G|---------------------------------------------------------------------------|
D|---------------------------------------------------------------------------|
A|-6---5---6---5--5-555-5-555-5-555-5-5-5------------------------------------|
E|-4---3---4---3--3-333-3-333-3-333-3-3-3------------------------------------|

VERSE (Starts directly at "Enough of your shit...")
e|---------------------------------------------------------------------------|
B|---------------------------------------------------------------------------|
G|---------------------------------------------------------------------------|
D|---------------------------------------------------------------------------|
A|-6-7-9999--6-7-9999--6-7-9999--6666-5555-----------------------------------|
E|-4-5-7777--4-5-7777--4-5-7777--4444-3333-----------------------------------|

BRIDGE
e|---------------------------------------------------------------------------|
B|---------------------------------------------------------------------------|
G|---------------------------------------------------------------------------|
D|---------------------------------------------------------------------------|
A|-6666-5555-8888-7777-8888-7777---------------------------------------------|
E|-4444-3333-6666-5555-6666-5555---------------------------------------------|

CHORUS ("You call me negative...")
e|---------------------------------------------------------------------------|
B|---------------------------------------------------------------------------|
G|---------------------------------------------------------------------------|
D|----------------2----------------------------------------------------------|
A|-5555-4444-3333-2---6666-5555-4444-3---------------------------------------|
E|-3333-2222-1111-0---4444-3333-2222-1---------------------------------------|

BRIDGE2
e|---------------------------------------------------------------------------|
B|---------------------------------------------------------------------------|
G|---------------------------------------------------------------------------|
D|--7-7-7-6--5--6--5--4------------------------------------------------------|
A|--7-7-7-6--5--6--5--4------------------------------------------------------|
E|--5-5-5-4--3--4--3--2------------------------------------------------------|

SONG STRUCTURE

INTRO
VERSE x4
BRIDGE
CHORUS x2
BRIDGE2
VERSE x5
BRIDGE
CHORUS x2
BRIDGE2

And that's it!
Добавлено: 11.11.2013
Другие материалы по этой песне:
  • Аккорды и текст

Страница создана 13.06.2013
http://primanota.ru/sheer-terror/just-cant-hate-enough-chords.htm
Привет, Гость.
Предлагаем пройти революционный курс по гитаре.
Подарок от PrimaNota.Ru, забирай!