PrimaNota.ru - самый крупный в мире бесплатный архив песенных текстов, аккордов, табулатур и нот


Sheer Terror - Close My Eyes - таба, видео

Регистрация Запомнить меня
Войти через:  Facebook Google Twitter Vk Yandex Mail.ru

Sheer Terror - Close My Eyes - таба, видео

Печатать
Просмотров: 109

ARTIST:     Sheer Terror
SONG:       Close My Eyes
ALBUM:      Ugly and Proud


TABBED BY:  Psychiropractor



As always, listen to the song to get the timing down.




Intro

 e |--------------------------|--------------------------|--------------------------|-------------------------|
 B |--------------------------|--------------------------|--------------------------|-------------------------|
 G |--------------------------|--------------------------|--------------------------|-------------------------|
 D |--4-----------------------|--------------------------|--------------------------|-------------------------|
 A |--4-----------------------|--------------------------|--------------------------|-------------------------|
 E |--2-----------------------|--------------------------|--------------------------|-------------------------|



Verse 1

 e |--------------------------|--------------------------|--------------------------|-------------------------|
 B |--------------------------|--------------------------|--------------------------|-------------------------|
 G |--------------------------|--------------------------|--------------------------|-------------------------|
 D |--------------------------|--11-------9--------9--9--|--------------------------|-------------------------|
 A |--9--11-11-11-11----11-11-|--9--------7--------7--7--|--9--11-11-11-11----------|-------------------------|
 E |--7--9--9--9--9-----9--9--|--------------------------|--7--9--9--9--9-----------|-------------------------|


       My stomach turns as the cigarette burns
       A hole in my memories of "when"
       Walk those streets, the rain sparkles off
       The concrete of my forever rest



Chorus

 e |--------------------------|--------------------------|--------------------------|-------------------------|
 B |--------------------------|--------------------------|--------------------------|-------------------------|
 G |--------------------------|--------------------------|--------------------------|-------------------------|
 D |--------------------------|--------------------------|--------------------------|-------------------------|
 A |--5--5--5-----------6--6--|--6-----8--8--8-----8--8--|--8-----5--5--5-----------|-------------------------|
 E |--3--3--3-----------4--4--|--4-----6--6--6-----6--6--|--6-----3--3--3-----------|-------------------------|


       I've swallowed every pill in the house
       And I've heaved up every bit of my pride
       Toss and turn, crash and burn, toss and turn
       The sun is rising and I've nowhere to hide



Break

 e |--------------------------|--------------------------|--------------------------|-------------------------|
 B |--------------------------|--------------------------|--------------------------|-------------------------|
 G |--------------------------|--------------------------|--------------------------|-------------------------|
 D |--------------------------|--------------------------|--------------------------|-------------------------|
 A |--7-----9-----9-----------|--------------7-----------|--5-----------------------|-------------------------|
 E |--5-----7-----7-----------|--------------5-----------|--3-----------------------|-------------------------|


 e |--------------------------|--------------------------|--------------------------|-------------------------|
 B |--------------------------|--------------------------|--------------------------|-------------------------|
 G |--------------------------|--------------------------|--------------------------|-------------------------|
 D |--------------------------|--------------------------|--------------------------|-------------------------|
 A |--7-----9-----9-----------|--------------7-----------|--10----------------9-----|--------5-----7----------|
 E |--5-----7-----7-----------|--------------5-----------|--8-----------------7-----|--------3-----5----------|

       I've nowhere to hide

 e |--------------------------|--------------------------|--------------------------|-------------------------|
 B |--------------------------|--------------------------|--------------------------|-------------------------|
 G |--------------------------|--------------------------|--------------------------|-------------------------|
 D |--------------------------|--------------------------|--------------------------|-------------------------|
 A |--7-----9-----9-----------|--------------7-----------|--5-----------------------|-------------------------|
 E |--5-----7-----7-----------|--------------5-----------|--3-----------------------|-------------------------|


 e |--------------------------|--------------------------|--------------------------|-------------------------|
 B |--------------------------|--------------------------|--------------------------|-------------------------|
 G |--------------------------|--------------------------|--------------------------|-------------------------|
 D |--------------------------|--------------------------|--------------------------|-------------------------|
 A |--7-----9-----9-----------|--------------7-----------|--10----------------9-----|--------5-----4----------|
 E |--5-----7-----7-----------|--------------5-----------|--8-----------------7-----|--------3-----2----------|



Verse 2 (over Chorus part)

 e |--------------------------|--------------------------|--------------------------|-------------------------|
 B |--------------------------|--------------------------|--------------------------|-------------------------|
 G |--------------------------|--------------------------|--------------------------|-------------------------|
 D |--------------------------|--------------------------|--------------------------|-------------------------|
 A |--5--5--5-----------6--6--|--6-----8--8--8-----8--8--|--8-----5--5--5-----------|-------------------------|
 E |--3--3--3-----------4--4--|--4-----6--6--6-----6--6--|--6-----3--3--3-----------|-------------------------|


       Spitting up blood in the bathroom
       The ulcer grows deeper than these four walls
       It's not romantic, and it's no sin
       And cowards don't lose--they just never win



Bridge

 e |--------------------------|--------------------------|--------------------------|-------------------------|
 B |--------------------------|--------------------------|--------------------------|-------------------------|
 G |--------------------------|--------------------------|--------------------------|-------------------------|
 D |--------------------------|--------------------------|--------------9--------7--|-------------------------|
 A |--7-----------7-----7--7--|--5--------7--------9-----|--2-----2--2--7--------5--|-------------------------|
 E |--5-----------5-----5--5--|--3--------5--------7-----|--0-----0--0--------------|-------------------------|

       I close my eyes
       And see everything as clear as day
       I open my eyes
       Just in time to see it taken away


 e |--------------------------|--------------------------|
 B |--------------------------|--------------------------|
 G |--------------------------|--------------------------|
 D |--------------------------|--------------------------|
 A |--5-----------------------|--4-----------------------|
 E |--3-----------------------|--2-----------------------|



Break

 e |--------------------------|--------------------------|--------------------------|-------------------------|
 B |--------------------------|--------------------------|--------------------------|-------------------------|
 G |--------------------------|--------------------------|--------------------------|-------------------------|
 D |--------------------------|--------------------------|--------------------------|-------------------------|
 A |--7-----9-----9-----------|--------------7-----------|--5-----------------------|-------------------------|
 E |--5-----7-----7-----------|--------------5-----------|--3-----------------------|-------------------------|


 e |--------------------------|--------------------------|--------------------------|-------------------------|
 B |--------------------------|--------------------------|--------------------------|-------------------------|
 G |--------------------------|--------------------------|--------------------------|-------------------------|
 D |--------------------------|--------------------------|--------------------------|-------------------------|
 A |--7-----9-----9-----------|--------------7-----------|--10----------------9-----|--------5-----7----------|
 E |--5-----7-----7-----------|--------------5-----------|--8-----------------7-----|--------3-----5----------|

       It's taken away

 e |--------------------------|--------------------------|--------------------------|-------------------------|
 B |--------------------------|--------------------------|--------------------------|-------------------------|
 G |--------------------------|--------------------------|--------------------------|-------------------------|
 D |--------------------------|--------------------------|--------------------------|-------------------------|
 A |--7-----9-----9-----------|--------------7-----------|--5-----------------------|-------------------------|
 E |--5-----7-----7-----------|--------------5-----------|--3-----------------------|-------------------------|


 e |--------------------------|--------------------------|--------------------------|-------------------------|
 B |--------------------------|--------------------------|--------------------------|-------------------------|
 G |--------------------------|--------------------------|--------------------------|-------------------------|
 D |--------------------------|--------------------------|--------------------------|-------------------------|
 A |--7-----9-----9-----------|--------------7-----------|--10----------------------|--------5-----4----------|
 E |--5-----7-----7-----------|--------------5-----------|--8-----------------7-----|--------3-----2----------|



Verse 3

 e |--------------------------|--------------------------|--------------------------|-------------------------|
 B |--------------------------|--------------------------|--------------------------|-------------------------|
 G |--------------------------|--------------------------|--------------------------|-------------------------|
 D |--------------------------|--11-------9--------9--9--|--------------------------|-------------------------|
 A |--9--11-11-11-11----11-11-|--9--------7--------7--7--|--9--11-11-11-11----11-11-|--12-------11-------7----|
 E |--7--9--9--9--9-----9--9--|--------------------------|--7--9--9--9--9-----9--9--|--10-------9--------5----|


 e |--------------------------|--------------------------|--------------------------|-------------------------|
 B |--------------------------|--------------------------|--------------------------|-------------------------|
 G |--------------------------|--------------------------|--------------------------|-------------------------|
 D |--------------------------|--11-------9--------9--9--|--------------------------|-------------------------|
 A |--9--11-11-11-11----11-11-|--9--------7--------7--7--|--9--11-11-11-11----------|-------------------------|
 E |--7--9--9--9--9-----9--9--|--------------------------|--7--9--9--9--9-----------|-------------------------|

       The next morning beats down on me

 e |--------------------------|--------------------------|--------------------------|-------------------------|
 B |--------------------------|--------------------------|--------------------------|-------------------------|
 G |--------------------------|--------------------------|--------------------------|-------------------------|
 D |--------------------------|--11-------9--------9--9--|--------------------------|-------------------------|
 A |--9--11-11-11-11----11-11-|--9--------7--------7--7--|--9--11-11-11-11----11-11-|--12-------11-------7----|
 E |--7--9--9--9--9-----9--9--|--------------------------|--7--9--9--9--9-----9--9--|--10-------9--------5----|

       Like a barroom brawl, it kicks my ass

 e |--------------------------|--------------------------|--------------------------|-------------------------|
 B |--------------------------|--------------------------|--------------------------|-------------------------|
 G |--------------------------|--------------------------|--------------------------|-------------------------|
 D |--------------------------|--11-------9--------9--9--|--------------------------|-------------------------|
 A |--9--11-11-11-11----11-11-|--9--------7--------7--7--|--9--11-11-11-11----------|-------------------------|
 E |--7--9--9--9--9-----9--9--|--------------------------|--7--9--9--9--9-----------|-------------------------|

       I look outside, to see that nothing's changed

 e |--------------------------|--------------------------|--------------------------|
 B |--------------------------|--------------------------|--------------------------|
 G |--------------------------|--------------------------|--------------------------|
 D |--------------------------|--11-------9--------9--9--|--------------------------|
 A |--9--11-11-11-11----11-11-|--9--------7--------7--7--|--9--11-11-11-11----11-11-|
 E |--7--9--9--9--9-----9--9--|--------------------------|--7--9--9--9--9-----9--9--|

       And nothing changes when I...



Outro

 e |--------------------------|--------------------------|--------------------------|-------------------------|
 B |--------------------------|--------------------------|--------------------------|-------------------------|
 G |--------------------------|--------------------------|--------------------------|-------------------------|
 D |--------------------------|--------------------------|--------------------------|-------------------------|
 A |--12-------11-------7-----|--9--11-11-11-11----11-11-|--12-------11-------7-----|--9--11-11-11-11----11-11|
 E |--10-------9--------5-----|--7--9--9--9--9-----9--9--|--10-------9--------5-----|--7--9--9--9--9-----9--9-|

       Close my eyes                                         Close my eyes

 e |--------------------------|--------------------------|--------------------------|-------------------------|
 B |--------------------------|--------------------------|--------------------------|-------------------------|
 G |--------------------------|--------------------------|--------------------------|-------------------------|
 D |--------------------------|--------------------------|--------------------------|-------------------------|
 A |--12-------11-------7-----|--9--11-11-11-11----11-11-|--12-------11-------7-----|-------------------------|
 E |--10-------9--------5-----|--7--9--9--9--9-----9--9--|--10-------9--------5-----|-------------------------|

       Close my eyes
Добавлено: 12.08.2015
Другие материалы по этой песне:
  • Аккорды и текст

Страница создана 12.08.2015
http://primanota.ru/sheer-terror/close-my-eyes-chords.htm
Привет, Гость.
Предлагаем пройти революционный курс по гитаре.
Подарок от PrimaNota.Ru, забирай!