PrimaNota.ru - самый крупный в мире бесплатный архив песенных текстов, аккордов, табулатур и нот


Shed 7 - Your Guess - аккорды и текст, таба, видео

Регистрация Запомнить меня
Войти через:  Facebook Google Twitter Vk Yandex Mail.ru

Shed 7 - Your Guess - аккорды и текст, таба, видео

Печатать
Просмотров: 68
Your Guess
Shed 7
		   YOUR GUESS IS AS GOOD AS MINE		BY SHED 7
=============================

RIFF 1:
e|-----------------------------0--------------------------------
B|-----1-------1-------1---------1------------------------------
G|-------0-------0-------0---2----------------------------------
D|---2-------0-------2-----3------------------------------------
A|-3-------2-------0--------------------------------------------
E|--------------------------------------------------------------

RIFF 2:
e|----------0----------------0----------------------------------
B|-----3------3---3------3-----3---3----------------------------
G|---0---0------0------0---0-----0------------------------------
D|-5-----------------5------------------------------------------
A|--------------------------------------------------------------
E|--------------------------------------------------------------

RIFF 3:
e|-----------3---------------3----------------------------------
B|-----1-0-1---1-------1---1---1---1----------------------------
G|---2-----------2---2---2-------2------------------------------
D|-3---------------3--------------------------------------------
A|--------------------------------------------------------------
E|--------------------------------------------------------------

RIFF 4:
e|---------3---------------3------------------------------------
B|-----0-----0---0-----0-----0---0------------------------------
G|---0---0-----0-----0---0-----0--------------------------------
D|--------------------------------------------------------------
A|--------------------------------------------------------------
E|-3---------------3--------------------------------------------

END BIT:
e|-----------------------------0-------------3------------------
B|-----1-------1-------1---------1-----1-0-1---1-------1-1-----0
G|-------0-------0-------0-----------2-----------2-----0-0-----0
D|---2-------0-------2-------2-----3-----------------0-------0--
A|-3-------2-------0--------------------------------------------
E|-------------------------3-----------------------3-------3----





INTRO:	1 - 1

VERSE:	1 - 1 - 1 - 1

CHORUS:	2 - 3 - 2 - 3
	3 - 4 - 3 - 4 - (STRUM F)

BREAK

INT_2:  1

VERSE

CHORUS

BREAK

END BIT: TO FADE






SOUNDS FUNNY BUT MY SKIES ARE FALLING DOWN
LEFT ME FOR DEAD ALL AROUND, ALL AROUND
MADE A GREAT BIG HOLE IN THE MIDDLE OF THE SEA
IT SEEMS IT'S THE END OF ME
COME BACK DOWN TO MY WAY OF THINKING
COME RIGHT BACK YOU CAN'T BELIEVE IN
YOU CAN HIT MY HEAD AND MAKE IT SHI__NE
BUT LATELY, YOUR GUESS IS AS GOOD AS MINE

IT SOUNDS FUNNY BUT MY HEART JUST MISSED A BEAT
SENT A SHUDDER FROM MY HEAD RIGHT DOWN TO MY FEET
MADE A GREAT BIG HOLE IN MY NEW SHOES
IT SEEMS IT'S THE END OF ME
COME BACK DOWN TO MY WAY OF THINKING
COME RIGHT BACK YOU CAN'T BELIEVE IN
YOU CAN HIT MY HEAD AND MAKE IT SHI__NE
BUT LATELY, YOUR GUESS IS AS GOOD AS MINE

YOUR AS GOOD AS MINE
YOUR AS GOOD AS MINE
AS GOOD AS MINE
.


	****************************
	* MORE SHED 7 SONGS PLEASE *
	****************************

CORRECTIONS/ADDITIONS/OTHER SONGS PLEASE
MARK SULLIVAN 100746.3536@COMPUSERVE.COM>     
Добавлено: 24.11.2013
Другие материалы по этой песне:
  • Аккорды и текст

Страница создана 21.07.2013
http://primanota.ru/shed-7/your-guess-chords.htm
Привет, Гость.
Предлагаем пройти революционный курс по гитаре.
Подарок от PrimaNota.Ru, забирай!