PrimaNota.ru - самый крупный в мире бесплатный архив песенных текстов, аккордов, табулатур и нот


Shed 7 - Speakeasy - аккорды и текст, таба, видео

Регистрация Запомнить меня
Войти через:  Facebook Google Twitter Vk Yandex Mail.ru

Shed 7 - Speakeasy - аккорды и текст, таба, видео

Печатать
Просмотров: 129
Уроки эстрадного вокала в Санкт-Петербурге
Speakeasy
Shed 7
		   SPEAKEASY		BY SHED 7
=========


INTRO:


  E             Am    G     Am    G     Frun            C   G
e|-----7-7--|-0-0-0-0-3-3-0-0-0-0-3-3-0-1-1-1-1-1-1-1-1-0-0-3-3
B|-----9-9--|-0-1-1-0-0-0-0-1-1-0-0-0-0-1-1-1-1-1-1-1-1-1-1-0-0
G|-----9-9--|-0-2-2-0-0-0-0-2-2-0-0-0-0-2-0-2-0-2-0-2-0-0-0-0-0
D|-----9-9--|-0-2-2-0-0-0-0-2-2-0-0-0-0-3-3-3-3-3-3-3-3-2-2-0-0
A|-----7-7--|-0-0-0-0-2-2-0-0-0-0-2-2-0-3-3-3-3-3-3-3-3-3-3-2-2
E|-0-0------|-0-----0-3-3-0-----0-3-3-0---------------------3-3
  ^^^^^^^^^^
  THIS BIT IS
  PLAYED x8




VERSE: SAME RHYTHM AS INTRO



Am		G		Am		G
WILL THERE BE ANOTHER BREAKDOWN, LOST IN YOUR WORDS
Am		G		Am		G	Frun
COMMUNICATION IS A LET DOWN, IN YOUR OWN WORDS
C	G
SPEAKEASY
Am		G		Am		G
WHEN YOU SPEAK IS IT EASY, LOST IN YOUR WORDS
Am		G		AM		G	Frun
YOUR TRYING TOO HARD TO PLEASE ME, IN YOUR OWN WORDS


Crun:
   C Bm Am
e|-0-0-0---
B|-1-1-1---
G|-0-0-2---
D|-2-0-2---
A|-3-2-0---
E|---------


Am - G - Am - F F#m

C - Bm - Am - E

C - Bm - Am - Frun - Crun - Am  STOP.



SOLO:

e|----------------------|---------------------------------|----------
B|----8--7--5-7-5-------|----88-77-5--88-77-55------------|----------
G|-/9---7--5-------TIMES|----99-77-5--99-77-55-7-5--TIMES-|----------
D|-------------------4--|--7--------------------------4---|----------
A|----------------------|-0-------------------------------|-3-2-0----
E|----------------------|---------------------------------|----------







		**************************
		*MORE SHED 7 SONGS PLEASE*
		**************************


CORRECTIONS/ADDITIONS/OTHER SONGS WANTED

MARK SULLIVAN 100746.3536@COMPUSERVE.COM>
     
Добавлено: 09.10.2013
Другие материалы по этой песне:
  • Аккорды и текст

Страница создана 25.05.2012
http://primanota.ru/shed-7/speakeasy-chords.htm
Привет, Гость.
Предлагаем пройти революционный курс по гитаре.
Подарок от PrimaNota.Ru, забирай!