PrimaNota.ru - самый крупный в мире бесплатный архив песенных текстов, аккордов, табулатур и нот


Sheavy - A Utopian Interlude - таба, видео

Регистрация Запомнить меня
Войти через:  Facebook Google Twitter Vk Yandex Mail.ru

Sheavy - A Utopian Interlude - таба, видео

Печатать
Просмотров: 27
Авторы: Dan Moore, Ren Squires, Keith Foley, Steve Hennessey

My first tabs. The great Sheavy, utopian interlude instrumental.
E tuning
have fun

Main riff, repeats over and over
e|---------------------------------------------------------------------|
B|------------------------------------------1--------------------------|
G|---------3---------3---3------------3---------------3---------3-3----|
D|-2-2-3-5---5-3-2-2---2---2--2-2-3-5---5-3---2-2-3-5---5-3-2-2--2-2---|
A|---------------------------------------------------------------------|
E|---------------------------------------------------------------------|


Main riff continued
e|---------------------------------------------------------------------|
B|---------------------------------------------------------------------|
G|--3-3-5b(6)-5--------------------------------------------------------|
D|--------------2------------------------------------------------------|
A|----------------3----------------------------------------------------|
E|---------------------------------------------------------------------|
Добавлено: 30.12.2015
Вам также может быть интересно:
Другие материалы по этой песне:
  • Аккорды и текст

Страница создана 30.12.2015
http://primanota.ru/sheavy/utopian-interlude-chords.htm
Привет, Гость.
Предлагаем пройти революционный курс по гитаре.
Подарок от PrimaNota.Ru, забирай!