PrimaNota.ru - самый крупный в мире бесплатный архив песенных текстов, аккордов, табулатур и нот


Sheavy - Moments Of Silence - бас-таба, видео

Регистрация Запомнить меня
Войти через:  Facebook Google Twitter Vk Yandex Mail.ru

Sheavy - Moments Of Silence - бас-таба, видео

Печатать
Просмотров: 81
Note:
There is distortion effect apart is tuned a tone below in DROP D. The theme is taken in 
stardart tuning. Anything correct. Greetings from Ushuaia, Tierra del Fuego, Argentina.

Moments Of Silence
sHeavy

|---------------------------------|
|---------------------------------|
|---------------------8---7-------|
|--10--9------10-9-10-------10-9--|

|----------------------|
|----------------------|
|----------8---7-------|
|--10-9-10-------10-9--|

|--------------------5-------|
|-------------------------6--|
|----------------------------|
|--10-9-10-12--13------------|

Several times...
Добавлено: 08.06.2013
Вам также может быть интересно:
Другие материалы по этой песне:
  • Аккорды и текст

Страница создана 08.06.2013
http://primanota.ru/sheavy/moments-of-silence-chords.htm
Привет, Гость.
Предлагаем пройти революционный курс по гитаре.
Подарок от PrimaNota.Ru, забирай!