PrimaNota.ru - самый крупный в мире бесплатный архив песенных текстов, аккордов, табулатур и нот


Shearwater - Lost Boys - таба, видео

Регистрация Запомнить меня
Войти через:  Facebook Google Twitter Vk Yandex Mail.ru

Shearwater - Lost Boys - таба, видео

Печатать
Просмотров: 110
”Lost Boys” – Shearwater (from the album Rook, 2008)
tabbed by Oskar Gustafsson, Sweden. E-mail: oskargson@hotmail.com

Intro
    Am
e-----------------------------|
b-------5-----5-----5-----5---|
g-----7-----7-----7-----7-----|
d---7-----7-----7-----7-------|
a-----------------------------| x2
e-----------------------------|

Fig.1. Verse (x2) until C, then jump to Am (Fig.2.)
    Am                 C
e--------------------------------------------------------|
b-------5-----5-----5-----5------8------8------8------8--|
g-----7-----7-----7-----7-----10-----10-----10-----10----|
d---7-----7-----7-----7-----10-----10-----10-----10------|
a--------------------------------------------------------|
E--------------------------------------------------------|

    Dm                C     G       F
e-----------------------------------------------------|
b-------6-----6-----6-----6-----1---------------1-----|
g---------------------------------------0---------2---|
d-----7-----7-----7-----7-----2-------0-------3-----3-|
a---5-----5-----5-----5-----3---------------3---------|
E---------------------------------3-------1-----------|

    C      Am
e--------- ------------------------------------------------|
b-------1- ----5-----5-----5-----5-----5-----5-----5-----5-|
g--------- --7-----7-----7-----7-----7-----7-----7-----7---|
d-----2--- ------7-----7-----7-----7-----7-----7-----7-----|
a---3----- 0-----------------------------------------------|
E--------- ------------------------------------------------|

Fig.2.
    C      Am
e--------- -----------------------------|
b-------1- ----1-------------7-------10-|
g---------- ----------7-----------------|
d-----2--- --2---2/4---4-4/5---5-5/7----|
a---3----- 0----------------------------|
E--------- -----------------------------|

    Dm                      Am
e-------1-----1-----1-----1-----------------------------|
b-------------------------------1-------------7------10-|
g-----2-----2-----2-----2-------------7-----------------|
d---0-----0-----0-----0-------2---2/4---4-4/5---5-5/7---|
a---------------------------0---------------------------|
E-------------------------------------------------------|

    Dm                      C
e-------1-----1-----1-----1-----3------3-----3-----3-|
b----------------------------------------------------|
g-----2-----2-----2-----2----(0)----(0)---(0)---(0)--|
d---0-----0-----0-----0------------------------------|
a---------------------------3------3-----3-----3-----|
E----------------------------------------------------|

Fig.3.
    Am      C       Dm          C  G   F            E7
e---0-0-0-0-0-0-0-0-0-1-1-0-- --0--3---1---1--    --0--|
b---1-3-3-1-1-3-3-1-3-3-3-3-- --1--3---1---1--    --3--|
g---2-2-2-2-0-0-0-0-2-2-2-2-- --0--0---2---2--    --1--|
d---2-2-2-2-2-2-2-2-0-0-0-0-- --2--0---3---3--    --2--|
a---0-0-0-0-3-3-3-3---------- --3-(2)-(3)-(3)-    --2--|
E---------------------------- -----3---------- x3 --0--|

Outro
   Am
e------8-----8-----8-----8--|
b---10----10----10----10----|
g---------------------------|
d---------------------------|
a--0-----0-----0-----0------|
E---------------------------|


Lost Boys – Shearwater

   Am                 C
My blistered feet turn bloody
     Dm
So I take to the air
                          C         G F
And I am everywhere, I am starlight
         C    Am
Oh, I am moonlight


      Am                 C
Over burning fields and bodies
        Dm
I stay close to the ground
                                   C          G F
Slipping miles from the arches and arc-lights
         Am
Into the warm night

Dm Am Dm C

       Am
Winged children, all
                  C
Will fly over the mountain wall
       Dm
To the lid of the sky

And slice it's belly full wide
            C           G F
Withe their warm knives
                       C        G F
Not the pin-pricks of starlight
                    C        G F
But to bathe in the bright blood
 E7                              Am
Of the world, of the world above
Добавлено: 18.05.2012
Другие материалы по этой песне:
  • Аккорды и текст

Страница создана 18.05.2012
http://primanota.ru/shearwater/lost-boys-chords.htm
Привет, Гость.
Предлагаем пройти революционный курс по гитаре.
Подарок от PrimaNota.Ru, забирай!