PrimaNota.ru - самый крупный в мире бесплатный архив песенных текстов, аккордов, табулатур и нот


Shearwater - La Dame Et La Licorne - таба, видео

Регистрация Запомнить меня
Войти через:  Facebook Google Twitter Vk Yandex Mail.ru

Shearwater - La Dame Et La Licorne - таба, видео

Печатать
Просмотров: 63
-------------------------------------------------------------------------------
                        LA DAME ET LA LICORNE - Shearwater
-------------------------------------------------------------------------------
Tabbed by: Adam Chandler

Tuning: Standard

e|------------------------------------------------------------------------8-|
B|------------------------------------------------------------------------8-|
G|---2-2------------------------------------------------------------------10|
D|-0----------------------------------------------------------------------0-|
A|------------------------------------------------------------------------0-|
E|--------------------------------------------------------------------------|
       Something is breathing in the air, something is moving in the water

e|--------------------------------------0---2---0---------|
B|--------------------------------------1---3---1---3-----|
G|---------------------5----4-----------2---2---2-----0---|
D|---------------------5----5-----------2---0---2-2-----4-|
A|---------------------3----2-----------0-------0-------0-|
E|------------------------------------------------------0-|
  And the winds in you       are blowing

e|-0-----------------8----------------------3--------0---3---0-|
B|-1-----------------8--------1------3------0-3------1---0---1-|
G|-2-----------------10-------0------0------0--------2---0---2-|
D|-2-----------------0--------2------0------2--------2---0---3-|
A|-0-----------------0--------3------2---------------0---2---0-|
E|-----------------------------------0-------------------3---1-|
   Bring back my boy,      I loved him,  I loved him

e|-2-2-2-3-----5-5-----2-2-2-3-----5-5-------1---0-------1-----3---0-|
B|-----------0---5---------------0---5-----1-1-------1----3--1---3---|
G|---------------5-------------------5-------0-----0-------2---------|
D|---------------------------------------2-------------0-------------|
A|-------------------------------------------------------------------|
E|-------------------------------------------------------------------|

e|-2-2-2-3-----5-5-----------------2-2-2-3-----5-5---------------------------|
B|-3-3-3-3---0---5-----------------3-3-3-3---0---5---------------------------|
G|-2-2-2-0-------5-----------------2-2-2-0-------5---------------------------|
D|-0-0-0-0-------7-----------------0-0-0-0-------7---------------------------|
A|-------2-------0-----------------------2-------0---------------------------|
E|---------------------------------------------------------------------------|
                   Little flakes of snow         on the roads and the fences

e|-2-2-2-3-----5-5-------------1-0-1-0-1-0-1-0-5---5---5---5---0-----3-----2-|
B|-3-3-3-3---0---5-------------1---1---1---1---6---6---6---6---1-----0-----3-|
G|-2-2-2-0-------5-------------0---0---0---0---5---5---5---5---2-----0-----2-|
D|-0-0-0-0-------7-------------2---2---2---2---7---7---7---7---2-----0-----0-|
A|-------2-------0-------------3---3---3---3---0---0---0---0---0-----2-----0-|
E|---------------------------------------------0---0---0---0---0-----3-----0-|
                   My head is aflame,                 my body's distant


e|-------------2-2-2-3-----5-5--------2-2-2-3-----5-5------------------------|
B|-------------3-3-3-3---0---5--------3-3-3-3---0---5------------------------|
G|-----0-------2-2-2-0-------5--------2-2-2-0-------5------------------------|
D|-0-----4-0---0-0-0-0-------7--------0-0-0-0-------7------------------------|
A|---0-------0-------2-------0--------------2-------0------------------------|
E|---------------------------------------------------------------------------|
                             And I am fading out, I can tell it all the time

e|-2-2-2-3-----5-5-------------1-0-1-0-1-0-1-0-5---5---5---5---0-----3-----2-|
B|-3-3-3-3---0---5-------------1---1---1---1---6---6---6---6---1-----0-----3-|
G|-2-2-2-0-------5-------------0---0---0---0---5---5---5---5---2-----0-----2-|
D|-0-0-0-0-------7-------------2---2---2---2---7---7---7---7---2-----0-----0-|
A|-------2-------0-------------3---3---3---3---0---0---0---0---0-----2-----0-|
E|---------------------------------------------0---0---0---0---0-----3-----0-|
   I'll go down in a flame and wheel in the air like a swallow

e|-------------1-1-1-1-1-1-1-1-1-1-1-1-1-1-1-1-3-3-3-3-3-3-3-3-|
B|-------------1-1-1-1-1-1-1-1-1-1-1-1-1-1-1-1-3-3-3-3-3-3-3-3-|
G|-----0-------2-2-2-2-2-2-2-2-2-2-2-2-2-2-2-2-0-0-0-0-0-0-0-0-|
D|-0-----4-0---3-3-3-3-3-3-3-3-3-3-3-3-3-3-3-3-0-0-0-0-0-0-0-0-|
A|---0-------0-0-0-0-0-0-0-0-0-0-0-0-0-0-0-0-0-2-2-2-2-2-2-2-2-|
E|-------------0-0-0-0-0-0-0-0-0-0-0-0-0-0-0-0-3-3-3-3-3-3-3-3-|
                                 Diving

e|-2-2-2-3-----5-5-----------------2-2-2-3-----5-5---------------------------|
B|-3-3-3-3---0---5-----------------3-3-3-3---0---5---------------------------|
G|-2-2-2-0-------5-----------------2-2-2-0-------5---------------------------|
D|-0-0-0-0-------7-----------------0-0-0-0-------7---------------------------|
A|-------2-------0-----------------------2-------0---------------------------|
E|---------------------------------------------------------------------------|
                   All you border guards, so young and handsome in the light

e|-2-2-2-3-----5-5-------------1-0-1-0-1-0-1-0-5---5---5---5---0-----3-----2-|
B|-3-3-3-3---0---5-------------1---1---1---1---6---6---6---6---1-----0-----3-|
G|-2-2-2-0-------5-------------0---0---0---0---5---5---5---5---2-----0-----2-|
D|-0-0-0-0-------7-------------2---2---2---2---7---7---7---7---2-----0-----0-|
A|-------2-------0-------------3---3---3---3---0---0---0---0---0-----2-----0-|
E|---------------------------------------------0---0---0---0---0-----3-----0-|
                 Won't you let me go through          one more time

e|-------------2-2-2-3-----5-5-----------------2-2-2-3-----5-5---5-5-7-8-7-5-|
B|-------------3-3-3-3---0---5-------3---3-3---3-3-3-3---0---5---5-5-5-5-5-5-|
G|-----0-------2-2-2-0-------5-----2-2-----3---2-2-2-0-------5---5-5-5-5-5-5-|
D|-0-----4-0---0-0-0-0-------7---2---2-----3---0-0-0-0-------7---7-7-7-7-7-7-|
A|---0-------0-0-0-0-2-------0-----------------0-0-0-2-------0---0-0-0-0-0-0-|
E|-------------0-0-0-0-------0-----------------0-0-0-0-------0---------------|
           One more time                                   oh, one more time

e|-2-2-2-3-----5-5-------1---0-----------------------------------8-------|
B|-3-3-3-3---0---5-----1-1-----1---1-----1-----1-----1-----1-----6-----1-|
G|-2-2-2-0-------5-------2---------0-----0-----0-----0-----0-----------0-|
D|-0-0-0-0-------7---2---3-------------0-----0-----0-----0-----0-----0---|
A|-0-0-0-2-------0-------------------------------------------------------|
E|-0-0-0-0-------0-------------------------------------------------------|

e|-------------------------------8-------|
B|-1-----1-----1-----1-----1-----6-----1-|
G|-0-----0-----0-----0-----0-----------0-|
D|-----0-----0-----0-----0-----0-----0---|
A|---------------------------------------|
E|---------------------------------------|

e|----------0-------3----------------------------|
B|----------1-------0----------------------------|
G|----------2---2---0------------------0-2-------|
D|----------2-----2-0--------------------3-------|
A|----------0-------2--------------------0-------|
E|------------------3----------------------------|
   Hold my arm,       will you hold my arm harder

e|----------------0-------3--------------------------------------------------|
B|----------------1-------0------------------1-------------------------------|
G|----------------2-------0------------------2---------0-------------------0-|
D|----------------2---2---0------------------3---3-----------3---------4---0-|
A|----------------0-------2------------------0-------3-----------3-----0---0-|
E|------------------------3--------------------------------1-----------0-----|
   There are islands in the sun, there are diamonds in the water
Добавлено: 29.11.2013
Другие материалы по этой песне:
  • Аккорды и текст

Страница создана 29.11.2013
http://primanota.ru/shearwater/la-dame-et-la-licorne-chords.htm
Привет, Гость.
Предлагаем пройти революционный курс по гитаре.
Подарок от PrimaNota.Ru, забирай!