PrimaNota.ru - самый крупный в мире бесплатный архив песенных текстов, аккордов, табулатур и нот


She Past Away - Rituel - таба, видео

Регистрация Запомнить меня
Войти через:  Facebook Google Twitter Vk Yandex Mail.ru

She Past Away - Rituel - таба, видео

Печатать
Просмотров: 68
Electronic Bass:

G|---------------------------------------------------------------|
D|--7---7---7---7---7---7---7---7---7---7---7---7---7---7---7---7|
A|---------------------------------------------------------------|
E|5---5---5---5---5---5---5---5---5---5---5---5---5---5---5---5--|

G|---------------------------------------------------------------|
D|--3---3---3---3---3---3---3---3---3---3---3---3---3---3---3---3|
A|---------------------------------------------------------------|
E|1---1---1---1---1---1---1---1---1---1---1---1---1---1---1---1--|

Clear Guitar(Riff1):
 
e|---------------------------------------------------------------|
B|---------------------------------------------------------------|
G|---------------------------------------------------------------|
D|---------------------------------------------------------------|
A|---------------------------------------------------------------|
E|5-5-5-5-5-5-5-5-4-4-4-4-7-7-7-7-8-8-8-8-8-8-8-8-7-7-7-7-7-7-7-7|

e|---------------------------------------------------------------|
B|---------------------------------------------------------------|
G|---------------------------------------------------------------|
D|---------------------------------------------------------------|
A|---------------------------------------------------------------|
E|5-5-5-5-5-5-5-5-4-4-4-4-7-7-7-7-8-8-8-8-8-8-8-8-7-7-7-7-4-4-4-4|

Clear Guitar(Riff2):

FIRST TIME
  Clean:                                        |Drive:                 |
e|----------------------------------------------------------------------|
B|----------------------------------------------------------------------|
G|--------------------------------------------------------9-------------|
D|-----------------------------------------------10-7-10------9--10---7-|
A|----------------------------------------------------------------------|
E|5---5---5-----5---5---5-8---8-5---------------------------------------|
Clean:
e|---------------------------------------------------------|
B|---------------------------------------------------------|
G|---------------------------------------------------------|
D|-------------------3-----------------3---3---3-----------|
A|-----------------------------------------------3---3-----|
E|-----------------1---1---1-1-1-1-1-1---------------------|

SECOND TIME
  Clean:                                        |Drive:                 |
e|----------------------------------------------------------------------|
B|----------------------------------------------------------------------|
G|--------------------------------------------------------9-------------|
D|-----------------------------------------------10-7-10------9--10---7-|
A|----------------------------------------------------------------------|
E|5---5---5-----5---5---5-8---8-5---------------------------------------|
Clean:
e|---------------------------------------------------------|
B|---------------------------------------------------------|
G|---------------------------------------------------------|
D|---------------------3-----------------------------------|
A|---------------------------------------------------------|
E|-----------------1-1-----1-1-1-1-1-1-1-1-3-3-3-3-3-3-3-3-|

Vox:
 
e|---------------------------------------------------------------|
B|---------------------------------------------------------------|
G|---------------------------------------------------------------|
D|-----------10-7-----------9---------6--------------------------|
A|---------------------------------------------------------------|
E|---------------------------------------------------------------|

Keys:
 
e|----5-----5-----7-----7-----7-5-----5-----5-----7-----7-----7-5|
B|---------------------------------------------------------------|
G|---------------------------------------------------------------|
D|---------------------------------------------------------------|
A|---------------------------------------------------------------|
E|---------------------------------------------------------------|

e|---------------------------------------------------------------|
B|--5-8-----8-----7-----7-----5-6-----8-----8-----7-----7-----5-6|
G|---------------------------------------------------------------|
D|---------------------------------------------------------------|
A|---------------------------------------------------------------|
E|---------------------------------------------------------------|



Structure:    *Bass goes whole song*
 Bass  x1 (solo)
 Riff1 x3 (with drums til' end)
 Riff2 x2
 Riff1 x2
 Riff2 x2 (with vocals)
 Vox   x6
 Riff2 x1 (with vocals)
 Riff2 x6? (with Keys) (without Drive part)(only First time part)
Добавлено: 31.12.2015
Другие материалы по этой песне:
  • Аккорды и текст

Страница создана 31.12.2015
http://primanota.ru/she-past-away/rituel-chords.htm
Привет, Гость.
Предлагаем пройти революционный курс по гитаре.
Подарок от PrimaNota.Ru, забирай!