PrimaNota.ru - самый крупный в мире бесплатный архив песенных текстов, аккордов, табулатур и нот


She & Him - Together - текст песни, бас-таба, видео

Регистрация Запомнить меня
Войти через:  Facebook Google Twitter Vk Yandex Mail.ru

She & Him - Together - текст песни, бас-таба, видео

Печатать
Просмотров: 263
Уроки эстрадного вокала в Санкт-Петербурге
Авторы: Zooey Deschanel

She & Him - Volume 3 - Together (Track 8)
Bass guitar - EADG
Transposed by Ivan Connolly (By ear) 

ivanconnolly95@hotmail.co.uk

s/ - Slide up
s\ - Slide down
h  - Hammer-ons

Verse: (0:14)

G|---------------------------|    G|---------------------------|
D|---------------------------| x2 D|---------------------------| x2
A|--5-5----3-3----5-5--5-3-1-|    A|--4-4----2-2----4-4--4-2-0-|
E|---------------------------|    E|---------------------------|

------------  Repeat the entire phrase four times    --------------



Pre-Chorus: (0:52)
G|--------------------------|    
D|--5---7---9--99//5--------| x2 
A|--------------------------|    
E|--------------------------|


G|----------------------------|----------------------------------|
D|--5---5-7---7---99-77-55-44-|22-11-00--------------------------|
A|----------------------------|---------22-11-0--0-1-2-s/5-s\-2--|
E|----------------------------|----------------------------------|


-----------------------------------------------------------------------


Chorus: (1:06)
G|------------------------------|------------------------------7h9h7--|
D|-----5--7---7s/9--9--9--9-7---|------------------------7h8h9--------|
A|--4-------------------------9-|-7---7-4---4-6----7h8h9--------------|
E|------------------------------|-------------------------------------|

--------            Repeat Chorus phrase twice           --------------


Verse: (1:27)

(1)                              (2)*
G|---------------------------|    G|---------------------------|
D|---------------------------| x2 D|---------------------------| x2
A|--5------3-3----5-5--5-3-1-|    A|--4------2-2----4-4--4-2-0-|
E|---------------------------|    E|---------------------------|

----------   Repeat phrase twice. Playing bar (2)* only once  ---------


G|--------------------------|    
D|--5---7---9--99//5--------| 
A|--------------------------|    
E|--------------------------|


(1)                               (2)*
G|---------------------------|    G|---------------------------|
D|---------------------------| x2 D|---------------------------| x2
A|--5------3-3----5-5--5-3-1-|    A|--4------2-2----4-4--4-2-0-|
E|---------------------------|    E|---------------------------|

----------   Repeat phrase twice. Playing bar (2)* only once  ---------


Improv. Bass melody: (2:02)

G|--7--5-------------------|
D|-------7-6-5-------------|
A|---------------7-6-5s\3--|
E|-------------------------|


----------------------------------------------------------------------


Pre-Chorus: (2:05)
G|--------------------------|    
D|--5---7---9--99//5--------| x2 
A|--------------------------|    
E|--------------------------|


G|----------------------------|----------------------------------|
D|--5---5-7---7---99-77-55-44-|22-11-00--------------------------|
A|----------------------------|---------22-11-0--0-1-2-s/5-s\-2--|
E|----------------------------|----------------------------------|


-----------------------------------------------------------------------



Chorus: (2:20)
G|------------------------------|------------------------------7h9h7--|
D|-----5--7---7s/9--9--9--9-7---|------------------------7h8h9--------|
A|--4-------------------------9-|-7---7-4---4-6----7h8h9--------------|
E|------------------------------|-------------------------------------|



--------            Repeat Chorus phrase twice           --------------




Verse: (2:39)

(1)                              (2)*
G|----------------------------|    G|---------------------------|
D|----------------------------| x2 D|---------------------------| x2
A|--5--5----3-3----5-5--5-3-1-|    A|--4-4----2-2----4-4--4-2-0-|
E|----------------------------|    E|---------------------------|



----------   Repeat phrase twice. Leaving bar (2)*  ---------

Pre Chorus: (2:53)

G|------------------------|    
D|--5---7---9--9-99s\5----| x2 
A|------------------------|    
E|------------------------|


G|----------------------------|----------------------------------|
D|--5---5-7---7---99-77-55-44-|22-11-00--------------------------|
A|----------------------------|---------22-11-0--0-1-2-s/5-s\-2--|
E|----------------------------|----------------------------------|



Chorus: (3:08 - 4:06)

Solo Bass + Voice

G|------------------------------|------------------------------7h9h7--|
D|-----5--7---7s/9--9--9--9-7---|------------------------7h8h9--------|
A|--4-------------------------9-|-7---7-4---4-6----7h8h9--------------|
E|------------------------------|-------------------------------------|


------------------             Fade out                 ---------------

Добавлено: 22.08.2013
Другие материалы по этой песне:
  • Аккорды и текст

Страница создана 22.08.2013
http://primanota.ru/she-and-him/together-chords.htm
Привет, Гость.
Предлагаем пройти революционный курс по гитаре.
Подарок от PrimaNota.Ru, забирай!