PrimaNota.ru - самый крупный в мире бесплатный архив песенных текстов, аккордов, табулатур и нот


She & Him - Ridin' In My Car - аккорды и текст, видео

Регистрация Запомнить меня
Войти через:  Facebook Google Twitter Vk Yandex Mail.ru

She & Him - Ridin' In My Car - аккорды и текст, видео

Печатать
Просмотров: 152
Уроки эстрадного вокала в Санкт-Петербурге
Ridin' In My Car
She & Him
-------------------------------------------------------------------------------
			Ridin' In My Car - She and Him
-------------------------------------------------------------------------------

Tabbed By: Adam Kopcinski
e-mail: solarflux@planetquake.com


Key of G

Intro:

X2
E|----------------------------------------------------------------------------------|
B|-12------12-----------12------12-----------12------12-----------12------12--------|
G|---14-12------12--------14-12------11--------14-12------12--------14-12------14---|
D|----------------12-------------------12-------------------14-------------------12-|
A|----------------------------------------------------------------------------------|
E|----------------------------------------------------------------------------------|


Chords

G                     Bmin
Remember last summer when we had the chance
C                     D
To find each other, start making romance
G                     Bmin
But it didn't come off because you found another
C                     D
Without one hand of a clock, what good is the other?


C                                          G
And I can't find no true love, oh baby, it's so hard
C                                          D
And I still think about you every time I'm riding in my car


G                     Bmin
So I went to the place where everybody hangs out
C                     D
To see what everybody was talking about
G                     Bmin
And over in a corner all alone with you
C                     D
Was a boy from last summer singing songs to you 



C                                            G
And he can't sing like I can sing, oh, it's so hard
C                                            D
And I still think about you every time I'm riding in my car


Bmin     
When I'm home alone
C               D               G
I can think of other things to do

Bmin                 C                        D        G
But when I'm rolling in forward motion I think about only you



G                     Bmin
It's been a year and a day since I talked to you
C                     D
I don't know how I made it, but I sure have been blue
G                     Bmin
And every time I think about what might have been
C                     D
I jump in my car and start riding again 



C                                          G
And I can't find no true love, oh baby, it's so hard
C                                          D
And I still think about you every time I'm riding in my car 


Solo
X2                                                               (2nd time)
E|------5h7p5/3/7--------5h7p5h7\2-------5h7p5--------------------7---3-------------|
B|--5h7---------------5h7-------------5h7-----7-/8---5--33---------------5----------|
G|----------------------------------------------------------------------------------|
D|----------------------------------------------------------------------------------|
A|----------------------------------------------------------------------------------|
E|----------------------------------------------------------------------------------|

| /  slide up
| \  slide down
| h  hammer-on
| p  pull-off
| ~  vibrato
| +  harmonic
| x  Mute note
Добавлено: 23.06.2013
Другие материалы по этой песне:
  • Аккорды и текст

Страница создана 23.06.2013
http://primanota.ru/she-and-him/ridin-in-my-car-chords.htm
Привет, Гость.
Предлагаем пройти революционный курс по гитаре.
Подарок от PrimaNota.Ru, забирай!