PrimaNota.ru - самый крупный в мире бесплатный архив песенных текстов, аккордов, табулатур и нот


She & Him - Brand New Shoes Live - таба, видео

Регистрация Запомнить меня
Войти через:  Facebook Google Twitter Vk Yandex Mail.ru

She & Him - Brand New Shoes Live - таба, видео

Печатать
Просмотров: 108
-------------------------------------------------------------------------------
			     Brand New Shoes (live) - She and Him
-------------------------------------------------------------------------------
Tabbed by: warhead2dbz

I watched M. Ward play this live and I'm about 95% sure of this tab. Please give 
me feedback and adjust anything that you think needs to be adjusted. Thanks!

Tuning:
Tune G string up to A
Tune low E string down to D

Timing: 3/4

Intro/ Verse
e|---------|---------|---------|---------------------------------------------|
B|----2-2--|----0-0--|---0-0---|----2-2--------------------------------------|
G|----0-0--|----0-0--|---0-0---|----2-2--------------------------------------|
D|---------|---------|---------|---------------------------------------------|
A|--0------|---------|---------|---------------------------------------------|
E|---------|--4------|-0-------|--2------------------------------------------|
I've got some brand new shoes.........

Pre-Chorus 1
e|---------|---------|---------|---------|---------|---------|---------------|
B|----2-2--|---------|----0-0--|----7-7--|----7-7--|----7-7--|----7-7--------|
G|----0-0--|----4-4--|----0-0--|----0-0--|----0-0--|----0-0--|----0-0--------|
D|---------|----5-5--|---------|---------|---------|---------|---------------|
A|--0------|--0------|---------|--6------|--6------|--6------|--6------------|
E|---------|---------|--0------|---------|---------|---------|---------------|
And they're runnin'......away........

Chorus												
e|---------|-------|-------|-------|--------|--------------------------------|
B|----2-2--|---2-2-|---2-2-|---2-2-|---0-0--|--------------------------------|
G|----0-0--|---0-0-|---0-0-|---0-0-|---0-0--|--7/9-7-5-~4~-------4/5-4-2--0--|
D|---------|-------|-------|-------|--------|--7/9-7-5-~4~---4---------------|
A|---------|-------|-------|-------|--------|-----------------------------0--|
E|--4------|-3-----|-2-----|-1-----|-0------|--------------0-----------------|
I'ts just like you told it be........

Pre-Verse
e|--------|---------|---------|---------|--------------------------0---------|
B|---2-2--|----0-0--|----0-0--|----2-2--|----2-2----0-0--------------0-------|
G|---0-0--|----0-0--|----0-0--|----2-2--|----0-0----0-0----------11------2-0-|
D|--------|---------|---------|---------|--------------------9-11------------|
A|--------|---------|---------|---------|--0---------------------------------|
E|--------|--4------|--0------|--2------|---------4------0-------------2-----|

Verse 2

Pre-Chorus 2
e|---------|---------|---------|---------|---------|---------|---------------|
B|----2-2--|---------|----0-0--|----2-2--|----2-2--|----2-2--|----2-2--------|
G|----0-0--|----4-4--|----0-0--|----0-0--|----0-0--|----0-0--|----0-0--------|
D|---------|----5-5--|---------|---------|---------|---------|---------------|
A|--0------|--0------|---------|--2------|--2------|--2------|--2------------|
E|---------|---------|--0------|---------|---------|---------|---------------|

Chorus
Pre-verse
End
Enjoy!

************************************

| /   slide up
| \   slide down
| h   hammer-on
| p   pull-off
| ~   vibrato
| +   harmonic
| x   Mute note
| b   Bend
| pb  Pre-bend
| br  Bend release
| pbr Pre-bend release
| brb Bend release bend

************************************|
Добавлено: 05.06.2013
Другие материалы по этой песне:
  • Аккорды и текст

Страница создана 05.06.2013
http://primanota.ru/she-and-him/brand-new-shoes-live-chords.htm
Привет, Гость.
Предлагаем пройти революционный курс по гитаре.
Подарок от PrimaNota.Ru, забирай!