PrimaNota.ru - самый крупный в мире бесплатный архив песенных текстов, аккордов, табулатур и нот


Shawn Mcdonald - Dont Give Up - таба, видео

Регистрация Запомнить меня
Войти через:  Facebook Google Twitter Vk Yandex Mail.ru

Shawn Mcdonald - Dont Give Up - таба, видео

Печатать
Просмотров: 74
-------------------------------------------------------------------------------
DON'T GIVE UP (ACOUTIC) - Shawn McDonald
-------------------------------------------------------------------------------

Capo 3

Tuning: D  A  D  G  B  D

VERSE
e|----0----0----0----0----0----0---------------------------------------------|
B|----0----0----0----0----0----0---------------------------------------------|
G|----0----0----0----0----0----0---------------------------------------------|
D|----9----7----5----4----2----4---------------------------------------------|
A|---10----9----7----5----3----5---------------------------------------------|
E|----0----0----0----0----0----0---------------------------------------------|


Sometimes it is hard to go on, It's hard to see the reasons
For breathing, living, letting love guide the way, But you must hold on


CHORUS : (5) sometimes
e|----0----0----0----0----0--------------------------------------------------|
B|----0---(5)---0----0----0--------------------------------------------------|
G|----0----0---(5)--(3)--(5)--------------------------=----------------------|
D|----0----0----4----2----4--------------------------------------------------|
A|----2----4----5----3----5--------------------------------------------------|
E|----2----4----0----0----0--------------------------------------------------|

Don't give up, Don't give up - Hold on for one more day

Sometimes we fall down - We get ourselves in trouble, but it's OK
Cause we still have another chance to get it right, To get it right

VERSE
e|----0----0----0----0----0----0---------------------------------------------|
B|----0----0----0----0----0----0---------------------------------------------|
G|----0----0----0----0----0----0---------------------------------------------|
D|----9----7----5----4----2----4---------------------------------------------|
A|---10----9----7----5----3----5---------------------------------------------|
E|----0----0----0----0----0----0---------------------------------------------|


Sometimes it is hard to go on, It's hard to see the reasons
For breathing, living, letting love guide the way, But you must hold on


CHORUS : (5) sometimes
e|----0----0----0----0----0--------------------------------------------------|
B|----0---(5)---0----0----0--------------------------------------------------|
G|----0----0---(5)--(3)--(5)--------------------------=----------------------|
D|----0----0----4----2----4--------------------------------------------------|
A|----2----4----5----3----5--------------------------------------------------|
E|----2----4----0----0----0--------------------------------------------------|

Don't give up, Don't give up - Hold on for one more day

BRIDGE
e|----0----0----0----0----0--------------------------------------------------|
B|----0---(5)---0----0----0--------------------------------------------------|
G|----0----0---(5)--(3)--(5)--------------------------=----------------------|
D|----0----0----4----2----4--------------------------------------------------|
A|----2----4----5----3----5--------------------------------------------------|
E|----2----4----0----0----0--------------------------------------------------|

I've come too far, I've seen so much
I've heard the call and felt the touch, I've tasted love that I cannot deny


CHORUS
e|----0----0----0----0----0--------------------------------------------------|
B|----0---(5)---0----0----0--------------------------------------------------|
G|----0----0---(5)--(3)--(5)--------------------------=----------------------|
D|----0----0----4----2----4--------------------------------------------------|
A|----2----4----5----3----5--------------------------------------------------|
E|----2----4----0----0----0--------------------------------------------------|

Don't give up, Don't give up - Hold on for one more day
Добавлено: 03.01.2016
Другие материалы по этой песне:
  • Аккорды и текст

Страница создана 03.01.2016
http://primanota.ru/shawn-mcdonald/dont-give-up-chords.htm
Привет, Гость.
Предлагаем пройти революционный курс по гитаре.
Подарок от PrimaNota.Ru, забирай!