PrimaNota.ru - самый крупный в мире бесплатный архив песенных текстов, аккордов, табулатур и нот


Shawn James - Midnight Dove - аккорды и текст, видео

Регистрация Запомнить меня
Войти через:  Facebook Google Twitter Vk Yandex Mail.ru

Shawn James - Midnight Dove - аккорды и текст, видео

Печатать
Просмотров: 101
Midnight Dove
Shawn James
Midnight Dove - Shawn James 

Capo I 

Chords: 
Em(022000)
Emadd9(024000)
D(xx0232)
Am(x02210)

Intro 

e|-7--------7---------7-------5---------5--------5-------3--------3--------3----------|
B|----0---------0--------0-------0---------0---------0------0--------0--------0-------|
G|------0---------0----------------0---------0----------------0--------0--------------|
D|------------------------------------------------------------------------------------|
A|-7--------7---------7-------5---------5--------5-------3--------3--------3----------|
E|------------------------------------------------------------------------------------|

e|-2-------2--------2-------------|
B|---0--------0--------0----------|
G|-----0--------0-----------------|    x 2 
D|--------------------------------|  
A|-2-------2--------2-------------|
E|--------------------------------|

e|-7--------10--------7-------5--------7--------5-----3-------3-------3-------|
B|---0----------0-------0-------0--------0--------0-----0-------0-------0-----|
G|-----0----------0---------------0--------0--------------0-------0-----------|
D|----------------------------------------------------------------------------|
A|-7--------10--------7-------5--------7--------5-----3-------3-------3-------|
E|----------------------------------------------------------------------------|

e|-2----3----5----7-----7-------7-------7-----5--------5-------5-------2--------3------2--------0--|
B|---0----0----0----0-----0-------0-------0------0-------0--------0------0--------0------0------0--|
G|--------------------------0-------0--------------0-------0---------------0--------0------0----0--|
D|----------------------------------------------------------------------------------------------2--|
A|-2----3----5----7-----7-------7-------7-----5--------5-------5-------2--------3------2--------2--|
E|----------------------------------------------------------------------------------------------0--|

Em
Midnight Dove
Why do you wander
                   Emadd9 
On through clouded skies? 
D                Am 
There must be a glimpse 
           Em 
Of hope in sight 
Spread your wings 
And take to flight
               Emadd9  
Leave the past behind
D              Am  
The dawn will birth 
            Em 
A brand new light
Am  
So fly on 
And never
Em 
Look back from where you came 
Am 
The sky opens up 
Em 
And it's calling out your name
Am  
Cause all you got is all 
All you got is all 
Em                     D Am 
All that you need
Em  
I found myself 
D
Found myself
Am  
Amongst the thorns and weeds 
Em 
You found yourself 
D  
Found yourself
Am 
Amongst the beautiful trees 
Em 
And we're not the same 
D                Am 
No we're not the same 
                 Em  
No we're not the same 
D                Am  
No we're not the same 
              Em 
Cause I gotta blow like you need
D
Flow like the sea 
Am 
Deep down inside of 
Every part of me 
   Em 
My heart's been aching 
        D                          Am 
For the freedom to stretch out my wings
         Em 
Now with every move I make 
    D 
And every breath I take
Am  
My mind's been worrying 
Am 
About what's at stake 
Em                     D 
But I just gotta let them go 
Am 
With the wind 
           Em 
Let it all go
           D 
Let it all go 
       Am 
Let it all go 
With the wind 
          Em
Let it all go 
           D
Let it all go
        Am 
Let it all go 
Em 
Midnight Dove 
D                 Am 
Why do you wander on?
Добавлено: 06.04.2016
Вам также может быть интересно:
Другие материалы по этой песне:
  • Аккорды и текст

Страница создана 06.04.2016
http://primanota.ru/shawn-james/midnight-dove-chords.htm
Привет, Гость.
Предлагаем пройти революционный курс по гитаре.
Подарок от PrimaNota.Ru, забирай!