PrimaNota.ru - самый крупный в мире бесплатный архив песенных текстов, аккордов, табулатур и нот


Shattersphere - Faithless - таба, видео

Регистрация Запомнить меня
Войти через:  Facebook Google Twitter Vk Yandex Mail.ru

Shattersphere - Faithless - таба, видео

Печатать
Просмотров: 83
Tuning: drop D
pm = Palm muted

Intro: 

(Actually it's done with a keyboard, but you can also play it on guitar.)

guitar 1 (clean)
e|---1----------------------------|
B|-3---3-1---------------2-5---2--|
G|---------2---2-3-2---2-----2----|  x4
D|-----------3-------3------------|
A|--------------------------------|
D|--------------------------------|

guitar 2 (Distortion)( Join in after 2 times )
e|--------------------------------|
B|--------------------------------|
G|--------------------------------|
D|-0---3---8---7---0---3---8---7--|
A|-0---3---8---7---0---3---8---7--|
D|-0---3---8---7---0---3---8---7--|


Verse: 
guitar 1 (clean) 
e|---1----------------------------|
B|-3---3-1---------------2-5---2--|
G|---------2---2-3-2---2-----2----|  x2
D|-----------3-------3------------|
A|--------------------------------|
D|--------------------------------|

e|--------------------------------|
B|--------------------------------|
G|-7---5---3---2---7---5---3---2--|
D|-7---5---3---2---7---5---3---2--|
A|-5---3---1---0---5---3---1---0--|
D|--------------------------------|


Pre-Chorus: 
guitar 2
e|--------------------------------|
B|--------------------------------|
G|--------------------------------|  x4
D|-8------------------------------|
A|-8------------------------------|
D|-8-0-0-0-0-0-0-0-0-0-0-0-0-0-0--|
     pm - - - - - - - - - - - pm

Chorus:
Guitar 2
e|--------------------------------|
B|--------------------------------|
G|--------------------------------|  x2
D|-0---3---33---8---7-------------|
A|-0---3---33---8---7-------------|
D|-0---3---33---8---7-------------|
           pm

Verse

Pre-chorus

Chorus

Bridge:
                                     x2
e|------------------||------------------|    
B|------------------||------------------|
G|------------------||------------------|  x3
D|-88--88--888--88--||------------------|
A|-88--88--888--88--||------------------|
D|-88--88--888--88--||-8-7-5-0-8-7-5-0--|
                      pm.- - - - - - pm.

e|------------------||------------------|    
B|------------------||------------------|
G|------------------||------------------|  
D|-88--88--888--88--||-7----------------|
A|-88--88--888--88--||-7----------------|
D|-88--88--888--88--||-7----------------|

Solo: (It's something like this, I don't know how to play it very correctly)

e|--------6-5-6-4----1------------|
B|---5(7)--------------1-------2--|
G|-7---------------3-----3-2-3----|
D|--------------------------------|
A|--------------------------------|
D|--------------------------------|


Ending:

e|---------------------------------|
B|---------------------------------|
G|---------------------------------| x2
D|---------------------------------|
A|---------------------------------|
D|-8--0-0-0-0-0-0-0-0-0-0-0-0-0-0--|
      pm.- - - - - - - - - - - -pm.  

e|---------------------------------|
B|---------------------------------|
G|---------------------------------| x6
D|-8-------------------------------|
A|-8-------------------------------|
D|-8--0-0-0-0-0-0-0-0-0-0-0-0-0-0--|
      pm.- - - - - - - - - - - -pm.   

The End..             
Добавлено: 23.06.2012
Другие материалы по этой песне:

Страница создана 27.04.2012
http://primanota.ru/shattersphere/faithless-chords.htm
Привет, Гость.
Предлагаем пройти революционный курс по гитаре.
Подарок от PrimaNota.Ru, забирай!