PrimaNota.ru - самый крупный в мире бесплатный архив песенных текстов, аккордов, табулатур и нот


Sharon Jones And The Dap-kings - Naturally (album) - таба, видео

Регистрация Запомнить меня
Войти через:  Facebook Google Twitter Vk Yandex Mail.ru

Sharon Jones And The Dap-kings - Naturally (album) - таба, видео

Печатать
Просмотров: 57
-------------------------------------------------------------------------------
        HOW DO YOU LET A GOOD MAN DOWN - SHARON JONES & THE DAP-KINGS
-------------------------------------------------------------------------------
Tabbed by: Ignacio Mendez-Nunez
E-mail: ignacio.mendeznunez@gmail.com

Tuning: Standard
Intro Guitar 1 
    Dm   Em Dm   C    G/C  Dm          Dm   Em Dm   C  C  Dm
e|--10---12\10---8-----3---10----------10--12\10----8--3--5------------------|
B|--10---12\10---8-----5---10----------10--12\10----8--5--6------------------|
G|--10---12\10---9-----5---10----------10--12\10----9--5--7------------------|
D|---------------------------------------------------------------------------|
A|---------------------------------------------------------------------------| 
E|--10---12\10---8-----3---10----------10--12\10----8--3--5------------------|

Main Riff
e|---------------------------------------------------------------------------|
B|---------------------------------------------------------------------------|
G|---------------------------------------------------------------------------|
D|--5------------------5------5----------------------------------------------|
A|----7--5-5--3-5-5/7-----------7--5-5--3-5-5/7------------------------------|
E|----------------------------------------------5----------------------------|

@0:33 "I know that some men just a'int no good.....
   G   G     G   Am7   G   G   G    Am7
e|---------------------------------------------------------------------------|
B|----------------5----------------5-----------------------------------------|
G|--4---4----4----5----4---4--4----5-----------------------------------------|
D|--5---5----5----7----5---5--5----5-----------------------------------------|
A|--5---5----5----7----5---5--5----7-----------------------------------------|
E|--3---3----3----5----3---3--3----5-----------------------------------------|

"How do I let a good man down..... how do I let a good man down?!"
                                                         Am7
e|--------------------------------------------------------5-------------------|
B|--------------------------------------------------------5-------------------|
G|--------------------------------------------------------5-------------------|
D|--5------------------5------5---------------------------5-------------------|
A|----7--5-5--3-5-5/7-----------7--5-5--3-5-5/7-----------7-------------------|
E|----------------------------------------------5---------5-------------------|

************************************

| /   slide up
| \   slide down
| h   hammer-on
| p   pull-off
| ~   vibrato
| +   harmonic
| x   Mute note
| b   Bend
| pb  Pre-bend
| br  Bend release
| pbr Pre-bend release
| brb Bend release bend

************************************

-------------------------------------------------------------------------------
                NATURAL BORN LOVER - SHARON JONES & THE DAP-KINGS
-------------------------------------------------------------------------------
Tabbed by: Ignacio Mendez-Nunez
E-mail: ignacio.mendeznunez@gmail.com

Tuning: Standard
Guitar comes in @0:10
    F
e|--1-1-1-1------3/5--------------5--5-3-1-----------------------------------|
B|--1-1-1-1--------------6---6-----------------------------------------------|
G|--2-2-2-2--2---3/5-----5---5----5--5-3-2-----------------------------------|
D|-----------------------7---7-----------------------------------------------|
A|---------------------------------------------------------------------------|
E|---------------------------------------------------------------------------|

Guitar 2 (Rhythm)
    F 
e|---5-5-5-5-5-5-5-5-5-5-5-5-5-5-5-5-5---------------------------------------|
B|---6-6-6-6-6-6-6-6-6-6-6-6-6-6-6-6-6---------------------------------------|
G|---5-5-5-5-5-5-5-5-5-5-5-5-5-5-5-5-5---------------------------------------|
D|---------------------------------------------------------------------------|
A|---------------------------------------------------------------------------|
E|---------------------------------------------------------------------------|

"He's a natural born lover, and he suits me fine
   Dm               F               Dm                Dm C Bb
e|-------------4/5--------------4/6-------------4/5---5--3--1---10h13--------------------|
B|-------------5/6--------------5/6-------------5/6---6--5--3-------10h13p10-------------|
G|-------------6/7--------------4/5-------------6/7---7--5--3--------------10h12p10------|
D|------------------33---3---3------------------------7--5--3--------------------10h12p1-|
A|--55-3-5-3-5---------5---5---------55-3-5-3-5------------------------------------------|
E|---------------------------------------------------------------------------------------|


************************************

| /   slide up
| \   slide down
| h   hammer-on
| p   pull-off
| ~   vibrato
| +   harmonic
| x   Mute note
| b   Bend
| pb  Pre-bend
| br  Bend release
| pbr Pre-bend release
| brb Bend release bend

************************************

-------------------------------------------------------------------------------
    STRANDED IN YOUR LOVE (FEAT. LEE FIELDS - SHARON JONES & THE DAP-KINGS
-------------------------------------------------------------------------------
Tabbed by: Ignacio Mendez-Nunez
E-mail: ignacio.mendeznunez@gmail.com

Tuning: Standard
Intro
  Bb     G     F
e|---------------------------------------------------------------------------|
B|-6-----3-----1-------------------------------------------------------------|
G|-7-----4-----2-------------------------------------------------------------|
D|-8-----5-----3-------------------------------------------------------------|
A|-8-----5-----3-------------------------------------------------------------|
E|-6-----3-----1-------------------------------------------------------------|
  
 C                       @0:18
e|----------------------|----------------------------------------------------|
B|-5-----5h6-5---3--3/5-|------------------------8--6/8\8--5---/10--8--/10-5-|
G|-5--------------------|---------5----------8/9----7/9\7--5---/10--9--/10-5-|
D|-5--------------------|------5-----7--5------------------------------------|
A|-3--------------------|--5h7-----------------------------------------------|
E|----------------------|----------------------------------------------------|

"been through this before"
e|---------------------------------------------------------------------------|
B|----------------------------------------------------6--5-------------------|
G|-5----5---------------------------------------------5--5-------------------|
D|-5h7--5--3-5--2------------------------5---5/7\5---------------------------|
A|--------------3-----------3-------5/7--------------------------------------|
E|--------------------3-5-3---5-3--------------------------------------------|

@0:50 "I just cant...."     @1:14  "for me to come inside"
   C     Bb               F Eb  G
e|-----------------------|-------3-------7--5--------------------------------|
B|-5--5---3----6--5------|-6-5---3-------8--6--------------------------------|
G|-5--5---3----5--5---x8-|-5-5---3-------------------------------------------|
D|-5--5---3-------5------|-------5-------------------------------------------|
A|-----------------------|-------5-------------------------------------------|
E|-----------------------|-------3-------------------------------------------|

That's all the parts. Some of them are played an octave higher for the chorus,
but I trust you can figure out an octave!


************************************

| /   slide up
| \   slide down
| h   hammer-on
| p   pull-off
| ~   vibrato
| +   harmonic
| x   Mute note
| b   Bend
| pb  Pre-bend
| br  Bend release
| pbr Pre-bend release
| brb Bend release bend

************************************

-------------------------------------------------------------------------------
                MY MAN IS A MEAN MAN - SHARON JONES & THE DAP-KINGS
-------------------------------------------------------------------------------
Tabbed by: Ignacio Mendez-Nunez
E-mail: ignacio.mendeznunez@gmail.com

Tuning: Standard
  Bb7     Eb9            
e|-44444--66666----4444-4--66666--6-6----44444-4--66666-66---44444-----------|
B|-33333--66666----3333-3--66666--6-6----33333-3--66666-66---33333--4-4-4-4--|
G|-33333--66666----3333-3--66666--6-6----33333-3--66666-66---33333--6-6-6-6--|
D|------------------------------------------------------------------5-5-5-5--|
A|---------------------------------------------------------------------------|
E|---------------------------------------------------------------------------|

 Main Riff/Verse   Chorus    The bass plays C-Eb all day......
    C  Eb13       D9             Eb9
e|--8---8---------5-5----5-5-5---6-6-----6-6-6-------------------------------|
B|--5---6---------5-5----5-5-5---6-6-----6-6-6-------------------------------|
G|--5---6---------5-5----5-5-5---6-6-----6-6-6-------------------------------|
D|---------------------------------------------------------------------------|
A|---------------------------------------------------------------------------|
E|---------------------------------------------------------------------------|

@1:47                     then Chorus again
e|---------------------------------------------------------------------------|
B|---------------------------------------------------------------------------|
G|---------------------------------------------------------------------------|
D|----------3----------------------------------------------------------------|
A|--3--5-6-----3--5-6-3------------------------------------------------------|
E|---------------------------------------------------------------------------|

************************************

| /   slide up
| \   slide down
| h   hammer-on
| p   pull-off
| ~   vibrato
| +   harmonic
| x   Mute note
| b   Bend
| pb  Pre-bend
| br  Bend release
| pbr Pre-bend release
| brb Bend release bend

************************************

-------------------------------------------------------------------------------
                YOU'RE GONNA GET IT - SHARON JONES & THE DAP-KINGS
-------------------------------------------------------------------------------
Tabbed by: Ignacio Mendez-Nunez
E-mail: ignacio.mendeznunez@gmail.com

Tuning: Standard
Intro
                E     B    Bb   A         B
e|---------------------------------------------------------------------------|
B|---------------------------------7----------------4------------------------|
G|--------------------8----7----6----6------------4---4----------------------|
D|--------------------9----8----7--------------4--------4--------------------|
A|-----------7--------9----8----7------------2-------------------------------|
E|---777-9------0------------------------------------------------------------|
 
Main Riff 
  E                  B    Bb   A            B
e|-----------0---------------------------------------------------------------|
B|-------------0----------=--------7-----------------4-----------------------|
G|-------------------8----7-----6----6-------------4---4---------------------|
D|-------/6----------9----8-----7------7---------4-------4-------------------|
A|----2--------------9----8-----7-------7------2-----------------------------|
E|--0---------------------------5--------------------------------------------|


Chorus @0:50
  E            B            C#m        E       A    F#m     B
e|--9--9-------11--11---------9--------7------555----222---77----------------|
B|--9--9---9---12--12--12---9---9------9------555----222---77----------------|
G|--9--9-------11--11------------9-----9--9---666----222---88----------------|
D|---------------------------------------------------------------------------| x4
A|--------------------------------------------------------------------7------|
E|----------------------------------------------------------------7-9--------|

@2:48 
  F#m           B      E                F#m    B   E   
e|---9--9--9----7-7-7--7-7-7--12-12-12----9--9--9--7-7-7--7-7-7--------------|
B|--10-10-10----7-7-7--9-9-9--9--9--9----10-10-10--7-7-7--9-9-9----12---9----|
G|--11-11-11----8-8-8--9-9-9--9--9--9----11-11-11--8-8-8--9-9-9--------------|
D|---------------------------------------------------------------------------|
A|---------------------------------------------------------------------------|
E|---------------------------------------------------------------------------|

  F#m           B      E               F#m       F#   B   
e|---9--9--9----7-7-7--7-7-7--12-12-12---9--9--9--9-9-9-9---777777777777-----|
B|--10-10-10----7-7-7--9-9-9--9--9--9---10-10-10--11-11-11--777777777777-----|
G|--11-11-11----8-8-8--9-9-9--9--9--9---11-11-11--11-11-11--888888888888-----|
D|------------------------------------------------11-11-11-------------------|
A|---------------------------------------------------------------------------|
E|---------------------------------------------------------------------------|

************************************

| /   slide up
| \   slide down
| h   hammer-on
| p   pull-off
| ~   vibrato
| +   harmonic
| x   Mute note
| b   Bend
| pb  Pre-bend
| br  Bend release
| pbr Pre-bend release
| brb Bend release bend

************************************

-------------------------------------------------------------------------------
       HOW LONG DO I HAVE TO WAIT FOR YOU? - SHARON JONES & THE DAP-KINGS
-------------------------------------------------------------------------------
Tabbed by: Ignacio Mendez-Nunez
E-mail: ignacio.mendeznunez@gmail.com

Tuning: Standard

Guitar
Pick up    Fm                               Eb
e|----------8---11-8---------------------------------------------------------|
B|----------9--------11-8-------------------8-----/11---9--8-----------------|
G|------8--10-------------10--8-----8-10----8-----/12--10--8-----8-----------|
D|-8h10----10--------------------10---------8----------------10--------------|
A|---------10-------------------------------6--------------------------------|
E|---------8-----------------------------------------------------------------|

  Fm                  Bass and horns do (CC-BbBb-GG-GbGb)        
e|-8-----11-8-------------------------------------------------11h13----------|
B|-8h9-------11-8-----------------------------11--13p11----11----------------|
G|-8h10-----------10--8-----8-10----------/12-----------12-------------------|
D|-8h10------------------10---------10---------------------------------------|
A|-8--------------------------------10---------------------------------------|
E|----------------------------------8----------------------------------------|

Bridge @1:19
e|---------------------------------------------------------------------------|
B|---------------------------------------------------------------------------|
G|------10--8----10-10----10---8------8--10/12--8----------------------------|
D|------------10-------10--------10-8----------------------------------------|
A|--8------------------------------------------------------------------------|
E|---------------------------------------------------------------------------|

Solo @1:46
e|---------11--13b-13-13--11-11--------11-11---------------------------------|
B|--11/13--------------------11--11h13-11-11h13p11-11------------------------|
G|-------------------------------------------------12h13p12--12h13p12--------|
D|-----------------------------------------------------------13--------------|
A|---------------------------------------------------------------------------|
E|---------------------------------------------------------------------------|

e|---------------------------------------------------------------------------|
B|------8---8----------------------------------------------------------------|
G|------8---8-----8----------------------------------------------------------|
D|-13--10--10-----8h10------/10-8--------------------------------------------|
A|---------------------------------10---8\6------/10--8----------------------|
E|---------------------------------------------------------------------------|


Can do some of the more detailed fills if people want 'em, just ask!
************************************

| /   slide up
| \   slide down
| h   hammer-on
| p   pull-off
| ~   vibrato
| +   harmonic
| x   Mute note
| b   Bend
| pb  Pre-bend
| br  Bend release
| pbr Pre-bend release
| brb Bend release bend

************************************

-------------------------------------------------------------------------------
         THIS LAND IS YOUR LAND - SHARON JONES & THE DAP-KINGS
-------------------------------------------------------------------------------
Tabbed by: Ignacio Mendez-Nunez
E-mail: ignacio.mendeznunez@gmail.com

Tuning: Standard

@0:16 

e|--6--6----4-4-----6--6----4--4---------------------------------------------|
B|--7--7----4-4-----7--7----4--4---------------------------------------------|
G|--8--8----4-4-----8--8----4--4---------------------------------------------|
D|--8--8------------8--8-----------------------------------------------------| x4
A|---------------------------------------------------------------------------| 
E|---------------------------------------------------------------------------|

@0:44
   Ebm  Db    Ab   Abm    Bb7                             
e|---------------------------------------------------------------------------|
B|--7----6----4----4--------6------------------------------------------------|
G|--8----6----5----4--------7------------------------------------------------|
D|--8----6----6----6--------6---------------------------4--4-----------------|
A|--6----4----6----6--------8-------------------------6--6---6-4-------------|
E|------------4----4--------6----------------------------------6-4--6p5h6ph6-|


************************************

| /   slide up
| \   slide down
| h   hammer-on
| p   pull-off
| ~   vibrato
| +   harmonic
| x   Mute note
| b   Bend
| pb  Pre-bend
| br  Bend release
| pbr Pre-bend release
| brb Bend release bend

************************************

-------------------------------------------------------------------------------
                YOUR THING IS A DRAG - SHARON JONES & THE DAP-KINGS
-------------------------------------------------------------------------------
Tabbed by: Ignacio Mendez-Nunez
E-mail: ignacio.mendeznunez@gmail.com

Tuning: Standard
Very "James Brown" tune
  Guitar 1: Eb7#9
e|---------------------------------------------------------------------------|
B|---7----7--------7-----7-------7-----7-------7-----7-----------------------|
G|---6----6--------6-----6-------6-----6-------6-----6-----------------------|
D|---5----5--------5-----5-------5-----5-------5-----5-----------------------|
A|---------------------------------------------------------------------------|
E|---------------------------------------------------------------------------|

Guitar 2:     Eb9
e|-----------66666---------66666---------66666-----------66666---------------|
B|-----------66666---------66666---------66666-----------66666---------------|
G|-----------66666---------66666---------66666-----------66666---------------|
D|---------------------------------------------------------------------------|
A|---------------------------------------------------------------------------|
E|---------------------------------------------------------------------------|

Guitar 3: Eb9 (eighth notes)
e|---------------------------------------------------------------------------|
B|---6-6-6-6-6-6-6-6-6-6-6-6-6-6-6-6-6-6-6-6-6-6-6-6-6-6-6-6-6-6-6-----------|
G|---6-6-6-6-6-6-6-6-6-6-6-6-6-6-6-6-6-6-6-6-6-6-6-6-6-6-6-6-6-6-6-----------|
D|---5-5-5-5-5-5-5-5-5-5-5-5-5-5-5-5-5-5-5-5-5-5-5-5-5-5-5-5-5-5-5-----------|
A|---------------------------------------------------------------------------|
E|---------------------------------------------------------------------------|

Guitar  1 @0:27     Ab7
e|--44444---------44444------------------------------------------------------|
B|--44444---------44444------------------------------------------------------|
G|--55555---------55555------------------------------------------------------|
D|--44444---------44444------------------------------------------------------|
A|---------------------------------------------------------------------------|
E|---------------------------------------------------------------------------|

Guitar  2 @0:27     Ab7 (eighth notes)
e|---------------------------------------------------------------------------|
B|--4-4-4-4-4-4-4-4-4-4-4-4-4-4-4-4-4-4-4-4-4-4-4-4--------------------------|
G|--5-5-5-5-5-5-5-5-5-5-5-5-5-5-5-5-5-5-5-5-5-5-5-5--------------------------|
D|--4-4-4-4-4-4-4-4-4-4-4-4-4-4-4-4-4-4-4-4-4-4-4-4--------------------------|
A|---------------------------------------------------------------------------|
E|---------------------------------------------------------------------------|

@0:40 "I know you think...."
   B7    Bb7           
e|-7------6------------7-----6--------7-----6--------------------------------|
B|-7------6------------7-----6--------7-----6--------------------------------|
G|-6------5------------6-----5--------6-----5--------------------------------|
D|-7------6------------7-----6--------7-----6--------------------------------|
A|---------------------------------------------------------------------------|
E|---------------------------------------------------------------------------|

Hook palm-muted Eb9
e|---------------------------------------------------------------------------|
B|---6-6-6-6-6-6-6-6------------------6-6-----6-6---8--6--8b-8---------------|
G|---6-6-6-6-6-6-6-6------------------6-6-----6-6---8--6--8b-8---------------|
D|-----------------------------------------8---------------------------------|
A|---------------------------------------------------------------------------|
E|-------------------------------------------------------------1b--1--1b--1--|



************************************

| /   slide up
| \   slide down
| h   hammer-on
| p   pull-off
| ~   vibrato
| +   harmonic
| x   Mute note
| b   Bend
| pb  Pre-bend
| br  Bend release
| pbr Pre-bend release
| brb Bend release bend

************************************

-------------------------------------------------------------------------------
                FISH IN THE DISH - SHARON JONES & THE DAP-KINGS
-------------------------------------------------------------------------------
Tabbed by: Ignacio Mendez-Nunez
E-mail: ignacio.mendeznunez@gmail.com

Tuning: Standard
Main Riff
 Bb7      Eb7                                         Bb7 
e|------------------------------------11---9---8------6-----6--6---5/6-6--6--|
B|-9-------4---4-4------/4----------------------------------9--9---8/9-9--9--|
G|-7-------6---6-6------/6-------11h12----10---8------6h7---7--7---6/7-7--7--|
D|-8-------5---5-5------/5----------------------------------8--8---7/8-8--8--| 
A|---------6---6-6------/6---------------------------------------------------|
E|---------------------------------------------------------------------------|

          Eb7                                         Bb7              A7
e|------------------------------------11---9---8------6-----6--6---5/6-6--5--|
B|---------4---4-4------/4----------------------------------9--9---8/9-9--8--|
G|---------6---6-6------/6-------11h12----10---8------6h7---7--7---6/7-7--6--|
D|---------5---5-5------/5----------------------------------8--8---7/8-8--7--| 
A|---------6---6-6------/6---------------------------------------------------|
E|---------------------------------------------------------------------------|

  Ab7                                Ab7                       Ab7 Gb7
e|-4--4-4----4--4-4------------------8--8--88---------4--4-44--4---2---------|
B|-7--4-4----4--4-4---------------------7--77------------4-44--4---2---------|
G|-5--5-5----5--5-5--------------7/8----8--88------4h5---5-55--5---3---------|
D|-7--7-7----7--7-7--------------------------------------------4---2---------|
A|---------------------------------------------------------------------------|
E|---------------------------------------------------------------------------|
  F7                         Eb7          Db      Bb7       Db  Bb7
e|-1--11-1-1---1--11-1-1-----------------------------------------------------|
B|-3--33-3-3---3--33-3-3-----4------4-----66------6---------66---6-----------|
G|-2--22-2-2---2--22-2-2-----6----6---5---66------7---------66---7-----------|
D|-1--11-1-1---1--11-1-1-----5--5---------66------6---------66---6-----------|
A|---------------------------6------------44------8---------44---8-----------|
E|-1--11-1-1---1--11-1-1--------------------------6--------------6-----------|


Repeat after 0:49

@1:36 vamp on                                 
  Bb                                             
e|--6-66--6-6--6-66--6-6-----6--6-66------10--10---10--10--6----6--6---------|
B|--6-66--6-6--6-66--6-6--------9-99----------9----9---9--5h6---6-6----------|
G|--7-77--7-7--7-77--7-7--6h7---7-77----/10---10--10--10---7----7-7----------|
D|--6-66--6-6--6-66--6-6-----------------------------------6----6-6----------|
A|---------------------------------------------------------------------------|
E|---------------------------------------------------------------------------|
until
 Bb    C Db    Ab      
e|-6--8---9-----4----------------------11--9---8-----------------------------|
B|-6--8---9-----4------------------------------------6-----------------------|
G|-7--9--10-----5------------------11h12---10---8----7h8-8b--8--6---6--------|
D|-6--8---9-----4-------------------------------------------------8----------|
A|---------------------------------------------------------------------------|
E|---------------------------------------------------------------------------|



************************************

| /   slide up
| \   slide down
| h   hammer-on
| p   pull-off
| ~   vibrato
| +   harmonic
| x   Mute note
| b   Bend
| pb  Pre-bend
| br  Bend release
| pbr Pre-bend release
| brb Bend release bend

************************************

-------------------------------------------------------------------------------
                 ALL OVER AGAIN - SHARON JONES & THE DAP-KINGS
-------------------------------------------------------------------------------
Tabbed by: Ignacio Mendez-Nunez
E-mail: ignacio.mendeznunez@gmail.com

Tuning: Standard
Intro                            3rd time ends in
    G       G  Am Bb    Am        G   D
e|-3-----3--3--5--6----6--5-|    -3--------------------------|
B|-3------------------------|    -3---5----------------------|
G|-4--3h4---4--5--7-6h7---5-|    -4---5----------------------|
D|-5------------------------| x3 -5---5----------------------|
A|--------------------------|    -----3----------------------|
E|--------------------------|    ----------------------------|

Verse
 Am           D      Am  Am9     D     Am        G    C     C7
e|--5-5-5-7---5-5-----55---5--7---5--5--5-5-57---3----3----------------------|
B|--5-5-5-5---7-7-----55---5--5---7--7--5-5-55---3----5-----5---------------=|
G|--5-5-5-5---7-7-----55---5--5---7--7--5-5-55---4----5-----3----------------|
D|--7-7-7-7---7-7-----77---7--7---7--7--7-7-77---5----5-----5----------------|
A|----------------------------------------------------3-----3----------------|
E|---------------------------------------------------------------------------|

                                  ..... I fall all over again
   G G7  C7   G  G C7                 G     D    Em    C
e|-3--3------3---3--------------------3-----------7--------------------------|
B|-3--3---5--3---3---5----------------3-----7-----8------8-------------------|
G|-4--4---3--4---4---3----------------4-----7-----9------9-------------------|
D|-5--3---5--5---3---5----------------5-----7-----9-----10-------------------|
A|-5--5---3--5---5---3----------------5-----5-----7-----10-------------------|
E|---------------------------------------------------8-----------------------|

Back to Intro

                     "and the years"
@1:42  G  F     C    G      Em   D  G        Em  D G  
e|------------------3--------7-----------------------------------------------|
B|----12--10----8---3--------8---7---3-------8---7--3------------------------|
G|----12--10----9---4--------9---7---4-------9---7--4------------------------|
D|----12--10---10---5--------9---7---5-------9---7--5------------------------|
A|----10--8----10---5------------5---5-------7---5--5------------------------|
E|--------------8------------------------------------------------------------|

"but I can't think of nothing better"
  Am    G    C7             F         D7   Db7  
e|-5----3----4--------------1---------5----4---------------------------------|
B|-5----3----3--------------1---------7----6---------------------------------|
G|-5----4----3------5-------2---------5----4---------------------------------|
D|-5----5----3--------------3---------7----6---------------------------------|
A|-7----5--------/7----7----3---------5----4---------------------------------|
E|---------------------------------------------------------------------------|

Back to Verse

Solo @3:42-4:20  All over Am  to D
e|---------------------------------------------------------------------------|
B|---------------------------------------------------------------------------|
G|---------------------------------------------------------------------------|
D|------5-----5h7----------------------5-5----5---7bbrb-------5h7~~~---------|
A|--5h7---7--------5h7-5----------5h7-------7---7-----------5----------------|
E|---------------------------------------------------------------------------|

e|---------------------------------------------------------------------------|
B|---------------------------------------------------------------------------|
G|---5p4----4---4h5-5p4--4-4--------------------7---7----7h9-7---------------|
D|-------7----7--------------7--7-5-5-5----7/9----9----9---------------------|
A|--------------------------------------7------------------------------------|
E|---------------------------------------------------------------------------|
                                              B.B. King lick
e|--------------------------------------------------8--10--------------------|
B|---------10b--10--8-7-----7h8p7---7----------10b---------10br--8--10-------|
G|--7--------------------9--------9---9-7------------------------------9-----|
D|-----9---------------------------------------------------------------------|
A|---------------------------------------------------------------------------|
E|---------------------------------------------------------------------------|

e|---------(10)-(8)----------------------------------------------------------|
B|--8--/12------(10---8h10---8\7h8p7h8p7-------------------------------------|
G|---------------------------------------9--7h9-7----------------------------|
D|------------------------------------------------9--------------------------|
A|---------------------------------------------------------------------------|
E|---------------------------------------------------------------------------|

************************************

| /   slide up
| \   slide down
| h   hammer-on
| p   pull-off
| ~   vibrato
| +   harmonic
| x   Mute note
| b   Bend
| pb  Pre-bend
| br  Bend release
| pbr Pre-bend release
| brb Bend release bend

************************************

Добавлено: 29.11.2015
Другие материалы по этой песне:
  • Аккорды и текст

Страница создана 29.11.2015
http://primanota.ru/sharon-jones-and-the-dap-kings/naturally-album-chords.htm
Привет, Гость.
Предлагаем пройти революционный курс по гитаре.
Подарок от PrimaNota.Ru, забирай!