PrimaNota.ru - самый крупный в мире бесплатный архив песенных текстов, аккордов, табулатур и нот


Sharon Jones And The Dap-kings - Dap Dippin With (album) - таба, видео

Регистрация Запомнить меня
Войти через:  Facebook Google Twitter Vk Yandex Mail.ru

Sharon Jones And The Dap-kings - Dap Dippin With (album) - таба, видео

Печатать
Просмотров: 58
-------------------------------------------------------------------------------
                            INTRODUCTION - SHARON JONES & THE DAP-KINGS
-------------------------------------------------------------------------------
Tabbed by: Ignacio Mendez-Nunez
E-mail: ignacio.mendeznunez@gmail.com

Tuning: Standard
Intro Chord
e|----9--9--9--9--9--9--9------|
B|---11-11-11-11-11-11-11------|
G|---12-12-12-12-12-12-12------|
D|-----------------------------|
A|-----------------------------|
E|-----------------------------|

Main Riff "Get it"
e|-12-12-12-12--12----12------------10--10--12 ------------------------------|
B|-12-12-12-12--12-------12---------10--10--12-------------------------------|
G|-12-12-12-12--12----------12------10--10--12-------------------------------|
D|------------------------------14-------------------------------------------|
A|---------------------------------------------------------------------------|
E|---------------------------------------------------------------------------|
    Hits @0:59
e|---------------------------------------------------------------------------|
B|---------------------------------------------------------------------------|
G|---------------------------------------------------------------------------|
D|--------------5--7--8-----9------------------------------------------------|
A|------7----5---------------------------------------------------------------|
E|----5----------------------------------------------------------------------|


-------------------------------------------------------------------------------
         GOT A THING ON MY MIND - SHARON JONES & THE DAP-KINGS
-------------------------------------------------------------------------------
Tabbed by: Ignacio Mendez-Nunez
E-mail: ignacio.mendeznunez@gmail.com

Tuning: Standard

Main Riff
e|---------------------------------------------------------------------------|
B|---777--7-----777--7----/9-------------------------------------------------|
G|---777--7-----777--7----/9-------------------------------------------------|
D|---777--7------777--7----/9------------------------------------------------|
A|---------------------------------------------------------------------------|
E|---------------------------------------------------------------------------|

Chorus @1:15 (same riff moving up)

e|-9--9--------9----12--12--------12---------17----17--------17--------------|
B|-9-----9--12------12-----12--15------------17-------17--20-----------------|
G|-10---------------13-----------------------18------------------7b-7b-7b9b7-|
D|---------------------------------------------------------------------------|
A|---------------------------------------------------------------------------|
E|---------------------------------------------------------------------------|


-------------------------------------------------------------------------------
         WHAT HAVE YOU DONE FOR ME LATELY - SHARON JONES & THE DAP-KINGS
-------------------------------------------------------------------------------
Tabbed by: Ignacio Mendez-Nunez
E-mail: ignacio.mendeznunez@gmail.com

Tuning: Standard
Awesome Janet Jackson cover!
 
Intro
e|-----------------------------------3--5b--5b-------------------------------|
B|------3--5b-5b--5--3---------------3--5b--5b-------------------------------|
G|------3--5b-5b--5--3-------5-----------------------------------------------|
D|---5-----------------------------------------------------------------------|
A|---------------------------------------------------------------------------|
E|---------------------------------------------------------------------------|

Main Riff
e|---------------------------------------------------------------------------|
B|--3--5--6------6--3------3-------------------------------------------------|
G|--3--5--6------6--3------3-------------------------------------------------|
D|----------------------5----------------------------------------------------|
A|---------------------------------------------------------------------------|
E|---------------------------------------------------------------------------|

  Chorus "What Have You done for me Lately...."  @0:50
     G9 chord...................
e|---10--10-10-10------------------------------------------------------------|
B|---10--10-10-10------------------------------------------------------------|
G|---10--10-10-10------------------------------------------------------------|
D|----9---9--9--9------------------------------------------------------------|
A|---------------------------------------------------------------------------|
E|---------------------------------------------------------------------------|

Bridge "I never asked for more than I deserve...." @1:41

e|---------------------------------------------------------------------------|
B|---------------------------------------------------------------------------|
G|---------------------------------------------------3-4-5-------------------| x2
D|---------3--5-----------3h5p3h5p3h5------------5---------------------------|
A|-----/5------------(5)--------------------6--6-----------------------------|
E|--6-------------5----------------------------------------------------------|

Bridge ends with four hits
      C     D#                     
e|---------------------------------------------------------------------------|
B|---55-----88---------------------------------------------------------------|
G|---55-----88---------------------------------------------------------------|
D|---55-----88---------------------------------------------------------------|
A|---33-----66---------------------------------------------------------------|
E|---------------------------------------------------------------------------|

-------------------------------------------------------------------------------
               THE DAP DIP - SHARON JONES & THE DAP-KINGS
-------------------------------------------------------------------------------
Tabbed by: Ignacio Mendez-Nunez
E-mail: ignacio.mendeznunez@gmail.com

Tuning: Standard
  F# (or C/Eb/A) diminished............... (Oh hell Binky!)..Db major
e|--8-----------------11----------14-------------------------9---------------|
B|--7-----------------10----------13-------------------------9---------------|
G|--8-----------------11----------14------------------------10---------------|
D|--7-----------------10----------13------------------------11---------------|
A|---------------------------------------------------------------------------|
E|---------------------------------------------------------------------------|

Main Riff
e|--------------99-----77---8---9---------------------99----77---8--9--------|
B|--------------99-----77---8---9---------------------99----77---8--9--------|
G|--------------99-----77---8---9---------------------99----77---8--9--------|
D|--------------88-----66---7---8---------7--9--7-----88----66---7--8--------|
A|-7h9--7-------------------------------9---------9--------------------------|
E|--------9--2---------------------------------------------------------------|

Dap it y'all!
     F#7#9 
e|---------------------------------------------------------------------------|
B|--10-10-10-10-10-----------------------------------------------------------|
G|---9--9--9--9--9-----------------------------------------------------------|
D|---8--8--8--8--8-----------------------------------------------------------|
A|---9--9--9--9--9-----------------------------------------------------------|
E|---------------------------------------------------------------------------|

Bridge @ 2:25
   F#7  F7  E7     D7         D7   D#7  E7     F#m7  (Fill)
e|------------------------------------------------9--------9h12p9------------|
B|--7--7\6--6\5----7----------7----8----9--------10--------------10h12p10----| 
G|--9--9\8--8\7----5----------5----6----7---------9-----------------------11-| x2
D|--8--8\7--7\6----7----------7----8----9--------11--------------------------|
A|--9--9\8--8\7----5----------5----6----7---------9--------------------------|
E|---------------------------------------------------------------------------|

You're Doing the(Hit)  Dap Dip! (Hit)
                 E7              C#7 
e|---------------7-----------------4-----------------------------------------|
B|---------------9-----------------6-----------------------------------------|
G|---------------7-----------------4-----------------------------------------|
D|---------------9-----------------6-----------------------------------------|
A|---------------7-----------------4-----------------------------------------|
E|---------------------------------------------------------------------------|



-------------------------------------------------------------------------------
         GIVE ME A CHANCE - SHARON JONES & THE DAP-KINGS
-------------------------------------------------------------------------------
Tabbed by: Ignacio Mendez-Nunez
E-mail: ignacio.mendeznunez@gmail.com

Tuning: Standard

Intro
e|---------------------------------------------------------------------------|
B|---------------------------------------------------------------------------|
G|---------------------------------------------------------------------------|
D|--8h10---------------------------------------------------------------------|
A|-------8h10--6h8-----------------------------------------------------------|
E|-----------------6---------------------------------------------------------|

Main Riff
e|--------------------------------------/8-----------------------------------|
B|---8-8-8-8-----/10----8---------------------8------------------------------|
G|---7-7-7-7-----/-9----7----------/9---------7------------------------------|
D|---8-8-8-8-----/10----8---------------------8------------------------------|
A|---------------------------------------------------------------------------|
E|---------------------------------------------------------------------------|


-------------------------------------------------------------------------------
         CUT THAT LINE - SHARON JONES & THE DAP-KINGS
-------------------------------------------------------------------------------

 Intro                 Horns go off Eb    F#
e|---------------------------------------------------------------------------|
B|---7-6-7-6-7-6-7-6-7--------------8-----2-----------9p8--------------------|
G|----------------------------------8-----3-----------8----------------------|
D|----------------------------------8-----4-----------8----------------------|
A|----------------------------------6-----4----------------------------------|
E|----------------------------------------2----------------------------------|

Main Riff  (line can best be heard for practicing @ 2:33
e|----9----8\6----5/6-----6666-----------------------------------------------|
B|----9----8\6----5/6-----6666-----------------------------------------------|
G|---10----8\6----5/6-----6666-----------------------------------------------|
D|---------------------8-----------------------------------------------------|
A|---------------------------------------------------------------------------|
E|---------------------------------------------------------------------------|

"I don't mind......"
Alternate between G# and G........................ Bb
e|---4-3-4-3-4-3-4----------------------------------6------------------------|
B|---4-3-4-3-4-3-4----------------------------------6------------------------|
G|---5-4-5-4-5-4-5----------------------------------7------------------------|
D|--------------------------------------------------8------------------------|
A|---------------------------------------------------------------------------|
E|---------------------------------------------------------------------------|




-------------------------------------------------------------------------------
         GOT TO BE THE WAY IT IS - SHARON JONES & THE DAP-KINGS
-------------------------------------------------------------------------------
Tabbed by: Ignacio Mendez-Nunez
E-mail: ignacio.mendeznunez@gmail.com

Tuning: Standard

Intro chord is a D7
e|---------------------------------------------------------------------------|
B|---3---3---3---------------------------------------------------------------|
G|---5---5---5-------------6-------------------------------------------------|
D|---4---4---4---------------9--6--------------------------------------------|
A|---5---5---5---------------------9--7--5-----------------------------------|
E|---------------------------------------------------------------------------|

Main Riff
e|--12-12-12-12-12----------12---------10--10--------------------------------|
B|--12-12-12-12-12-------------12------10--10--------------------------------|
G|--12-12-12-12-12----------------12---10--10--------------------------------|
D|---------------------------------------------------------------------------|
A|---------------------------------------------------------------------------|
E|---------------------------------------------------------------------------|


-------------------------------------------------------------------------------
         MAKE IT GOOD TO ME  - SHARON JONES & THE DAP-KINGS
-------------------------------------------------------------------------------
Tabbed by: Ignacio Mendez-Nunez
E-mail: ignacio.mendeznunez@gmail.com

Tuning: Standard

Intro
e|------------------------------------------------5--------------------------|
B|----10------------------------------------------5--------------------------|
G|----10h12p10---10---------5----5----------------5--------------------------|
D|---------------10h12p10---5h7--5h7--5----5------5--------------------------|
A|------------------------------------5h7--5--3---7--------------------------|
E|------------------------------------------------5--------------------------|

Main Riff
       C      C       Am      C
e|----8-------8-------5-------8----------------------------------------------|
B|----8-------8-------5-------8----------------------------------------------|
G|----9-------9-------5-------9----------------------------------------------|
D|---10-------10------7-------10---------------------------------------------|
A|---10-------10------7-------10---------------------------------------------|
E|----8-------8-------5-------8--------/12--10-----8--8----------------------|

.."But if you hold me"
e|---------------------------------------------------------------------------|
B|------10--------------------------10---------8--------12-------------------|
G|------10-----------------10------------------------------------------------|
D|------10----------------------/10---------/9-----\12-----------------------|
A|-5--7-8-------10h12--12----------------------------------------------------|
E|---------------------------------------------------------------------------| 

"We can forget all our worries"
 Am outline  G outline F outline
e|---------------------------------------------------------------------------|
B|-------13-------12---------10----------------------------------------------|
G|---------------------------------------------------------------------------|
D|-/14--------12-------/10---------------------------------------------------|
A|---------------------------------------------------------------------------|
E|---------------------------------------------------------------------------|

"If you make it good to me baby"
       C      C       Am      C                            2nd ending
e|----8-------8-------5-------8----------------------------------------------|
B|----8-------8-------5-------8-----------------------------12----10---------|
G|----9-------9-------5-------9-----------------------------12----10---------|
D|---10-------10------7-------10----------------------------12----10---------|  x2
A|---10-------10------7-------10----------------------------10----8----------|
E|----8-------8-------5-------8--------/12--10-----8--8----------------------|

 "Well it ever be the same?"
   Am                      C
e|---------------------------------------------------------------------------|
B|--5------5-----5----------8------------------------------------------------|
G|--5------5-----5----------9------------------------------------------------|
D|--7------7-----7---------10------------------------------------------------|
A|--7------7-----7---------10------------------------------------------------|
E|--5---3--5---3-5----------8------------------------------------------------|

Won't your friends say it's a shame?     "Let them talk"
   Am                                       G              F
e|---------------------------------------------------------------------------|
B|--5------5-----5------------------------12-------------10------------------|
G|--5------5-----5------------------------12-------------10------------------|
D|--7------7-----7------------------------12-------------10------------------|
A|--7------7-----7------------------------10-------------8-------------------|
E|--5---3--5---3-5-----------------------------------------------------------|



-------------------------------------------------------------------------------
         AIN'T IT HARD - SHARON JONES & THE DAP-KINGS
-------------------------------------------------------------------------------
Tabbed by: Ignacio Mendez-Nunez
E-mail: ignacio.mendeznunez@gmail.com

Tuning: Standard
Intro
   F      F     F      Dm      C#m      Cm   
e|---------------------5--------4-------3------------------------------------|
B|10-----10----10------6--------5-------4------------------------------------|
G|10-----10----10------7--------6-------5------------------------------------|
D|10-----10----10------7--------6-------5------------------------------------|
A|8-------8-----8------------------------------------------------------------|
E|---------------------------------------------------------------------------|

Main Riff
   Dm       D#m     Em 
e|--5555--5-6-----77777----10p7----------------------------------------------|
B|--6666--6-7-----88888----------10p8----------------------------------------|
G|--7777--7-8-----99999------------------------------------------------------|
D|---------------------------------------------------------------------------|
A|---------------------------------------------------------------------------|
E|---------------------------------------------------------------------------|


-------------------------------------------------------------------------------
         PICK IT UP, LAY IT IN THE CUT - SHARON JONES & THE DAP-KINGS
-------------------------------------------------------------------------------
Tabbed by: Ignacio Mendez-Nunez
E-mail: ignacio.mendeznunez@gmail.com

Tuning: Standard

Take it slow while you learn to make sure you get all the notes!
First Part                              Second
e|---------------------------------------------------------------------------|
B|---------------------------------------------------------------------------|
G|---------------------------------------------------------------------------|
D|--2h-4--2-4--/6---4\2------------------4---4---2h4--/6--4\2----------------|
A|----------------------4--2---------------4---4---------------4--2----------|
E|----------------------------5--------------------------------------5-------|
  Third                                  Fourth
e|------------------------------------------------------------------------10-|
B|------------------------------------------------------------------------10-|
G|------------------------------------------------------------------------10-|
D|-4---4---2h4----/6----4\2------------------4p2-----2-----------------------|
A|---4---4--------------------4--2----------------4------4p3p0---------------|
E|---------------------------------5-----------------------------3--2--------|

Main Riff

e|-9---11--11--9----11--11---------------------------------------------------|
B|-9---9---9---9----9---9----------------------------------------------------|
G|-9---9---9---9----9---9----------------------------------------------------|
D|---------------------------------------------------------------------------|
A|---------------------------------------------------------------------------|
E|---------------------------------------------------------------------------|

Bridge @ 2:23
  Wah wah wah wah    wah wah wah                   D    C#
e|--7--7-------------------2---2----------7--7-------------------------------|
B|--7--7-------------------2---2----------7--7------7---6--------------------|
G|--7--7-------------------2---2----------7--7------7---6--------------------|
D|--------------------------------------------------7---6--------------------|
A|--------------------------------------------------5---4--------------------|
E|---------------------------------------------------------------------------|


-------------------------------------------------------------------------------
        CASELLA WALK - SHARON JONES & THE DAP-KINGS
-------------------------------------------------------------------------------
Tabbed by: Ignacio Mendez-Nunez
E-mail: ignacio.mendeznunez@gmail.com

Tuning: Standard
Intro
e|---------------------------------------------------------------------------|
B|---------------------------------------------------------------------------|
G|-----8------10------8-----7-----5------------------------------------------|
D|-\10----\12-----10-----8-----6-------3-------------------------------------|
A|-----------------------------------------6---------------------------------|
E|---------------------------------------------------------------------------|

Funk time
e|-8-8-8-8-8-8----99---------------------------------------------------------|
B|-8-8-8-8-8-8----99---------------------------------------------------------|
G|-8-8-8-8-8-8----99---------------------------------------------------------|
D|---------------------------------------------------------------------------| x2
A|---------------------------------------------------------------------------|
E|---------------------------------------------------------------------------|
                                                             second fill
e|---------------------------------------------------------------------------|
B|---------------------------------------------------------------------------|
G|-10---8------------------8--7\5---5/7\5------------------------------------|
D|------------6b----------10--8\6---6/8\6---6666666666---or -----6b----------|
A|----------------8p6----------------------------------------6h8-------------|
E|---------------------------------------------------------------------------|


Добавлено: 29.11.2015
Вам также может быть интересно:
Другие материалы по этой песне:
  • Аккорды и текст

Страница создана 29.11.2015
http://primanota.ru/sharon-jones-and-the-dap-kings/dap-dippin-with-album-chords.htm
Привет, Гость.
Предлагаем пройти революционный курс по гитаре.
Подарок от PrimaNota.Ru, забирай!