PrimaNota.ru - самый крупный в мире бесплатный архив песенных текстов, аккордов, табулатур и нот


Sharon Jones And The Dap-kings - Better Things - таба, видео

Регистрация Запомнить меня
Войти через:  Facebook Google Twitter Vk Yandex Mail.ru

Sharon Jones And The Dap-kings - Better Things - таба, видео

Печатать
Просмотров: 76
Авторы музыки: Homer Steinweiss

-------------------------------------------------------------------------------
                             Better Things - Sharon Jones and The Dap Kings
-------------------------------------------------------------------------------
Tabbed by: Jeff

                                             |          verse/chorus riff
e|----------------------------------------------------4--7-------------------|
B|----------------------------------------------------5----7--6--6-----------|
G|----------------------------------------------------x-------6--6-----------|
D|-----------------------------------------------6----6-------6--------------|
A|-4-2-3-4-2-4-4-2-3-4-4--4-4-2-3-4-4--4-4-4-6/8------4-------8--------------|
E|-------------------------------------------------4-------------------------|
                |
e|---------------------------------------------------------------------------|
B|----------7--6-------------------------------------------------------------|
G|----------6--6-------------------------------------------------------------|
D|-----4----6--6-------------------------------------------------------------|
A|-4/6-----------------------------------------------------------------------|
E|-------2-------------------------------------------------------------------|


I'm a better woman than I have been
'Cause I don't think about way back when
It takes two to love but only one to leave
It was you who did that dirty deed

I got better things to do
Better things to do
Better things to do
Than remember you

I got better things to do
Better things to do
Better things to do
Than remember you

Bridge

e|---------------------------------------------------------------------------|
B|---------------------------------------------------------------------------|
G|----------------------------x2---------------------------------------------|
D|---------------------------------------------------------------------------|
A|--2--2--4--2--4--1---------------------------------------------------------|
E|---------------------------------------------------------------------------|

It's a brighter day than ever before
'Cause I don't think about you no more
I got a new life and I'm feeling right on
My head is high and my spirit is strong

I got better things to do
Better things to do
Better things to do
Than remember you

I got better things to do
Better things to do
Better things to do
Than remember you

I got better things to do

I got better things to do
Better things to do
Better things to do
Than remember you

I got better things to do
Better things to do
Better things to do
Than remember you

Better things to do
Than remember you
Better things to do
Than remember you

Better things to do
Than remember you
Better things to do
Than remember you

Better things to do
Than remember you
Better things to do
Than remember you

Better things to do
Than remember you
Better things to do
Than remember you

Better things to do
Than remember you
Better things to do
Than remember you



************************************

| /   slide up
| \   slide down
| h   hammer-on
| p   pull-off
| ~   vibrato
| +   harmonic
| x   Mute note
| b   Bend
| pb  Pre-bend
| br  Bend release
| pbr Pre-bend release
| brb Bend release bend

************************************
Добавлено: 20.09.2013
Другие материалы по этой песне:
  • Аккорды и текст

Страница создана 20.09.2013
http://primanota.ru/sharon-jones-and-the-dap-kings/better-things-chords.htm
Привет, Гость.
Предлагаем пройти революционный курс по гитаре.
Подарок от PrimaNota.Ru, забирай!