PrimaNota.ru - самый крупный в мире бесплатный архив песенных текстов, аккордов, табулатур и нот


Sharon Jones And The Dap-kings - Be Easy - таба, видео

Регистрация Запомнить меня
Войти через:  Facebook Google Twitter Vk Yandex Mail.ru

Sharon Jones And The Dap-kings - Be Easy - таба, видео

Печатать
Просмотров: 124
Sharon Jones and the Dap Kings
Be Easy
Tabbed by Ryan.c
Email chhang7@hotmail.com


Its a quick tab and i may do an updated version later on to update a few things, but 
this is the basic bones of it.


Intro
e|---------------------------------|
B|-10-10-10-10-10------------------|
G|-10-10-10-10-10------------------|
D|-10-10-10-10-10---12--10---------|
A|-8--8--8--8--8------------10--8--|
E|---------------------------------|


Intro rythm
e|----------------------------------|
B|--7-------7-------7-------7-------|
G|--7--7-5--7-------7--7-5--7-------|
D|--7-------7-------7-------7-------|
A|--5-------5--3-5--5-------5--3-5--|
E|----------------------------------|


Verse rythm
e|-------------------------------------------------------------------|
B|--7-------7-------3--8-6--3-------7--------7-------7-------7-------|
G|--7--7-5--7-------4-------4-------7---7-5--7-------7--7-5--7-------|
D|--7-------7--3-5--5-------5-------7--------7-------7-------7-------|
A|--5-------5------------------3-5--5--------5--3-5--5-------5---3-5-|
E|-------------------------------------------------------------------|


Verse Lead

e|-----------3/1---3---------|
B|--7/5--7---3/1---3---7-----|
G|--7/5--7---4/2---4---7-----|
D|--7/5--7---5/3---5---7-----|
A|--5/3--5---5/3---5---5-----|
E|-----------3/1---3---------|

ther are 2 ways i this part ones easy the other is harder

1)
e|-------1-1---------------|
B|-3p1p0-1-1—-3p1p0h1------|
G|-------------------------|
D|--------------------3----|
A|-----------------------5-|
E|-------------------------|

2)
e|------------------------|
B|--------6-6-------------|
G|-5p3p2--5-5-3h0 5-------|
D|------------------3-----|
A|---------------------5--|
E|------------------------|


e|-----------3/1---3------------|
B|--7/5--7---3/1---3---7/5--7---|
G|--7/5--7---4/2---4---7/5--7---|
D|--7/5--7---5/3---5---7/5--7---|
A|--5/3--5---5/3---5---5/7--5---|
E|-----------3/1---3------------|




e|---------------------------------------|
B|-7/5--7----------------------7/5--7----|
G|-7/5--7----------------------7/5--7----|
D|-7/5--7---10-8-7-------------7/5--7-10-|
A|-5/3--5----------10-8-8------5/3--5----|
E|------------------------10-------------|



Chorus rythm
F, G, D, C, G, A, D, C, F, G, D, C, G, A, A#

Chorus lead
e|-1--3-----------------------------------------1---------------|
B|-1--3--7---------------------------------7-5--1---------------|
G|-2--4--7—--------------------------------7-5--2---------------|
D|-3--5--7—-7p5---------5------------------7-5--3---------------|
A|-3--5--5------7 7-5h7---5-----5------5---5-3--3----3----3-----|
E|-1--3----------------------5h7---5h7----------1—1h3---1h------|

e|---------------------------------5----------------10----8----5-|
B|-7-------------------------------5-------------/8----/6---/3---|
G|-7-------------------------------6-----------------------------|
D|-7---7p5--------5----------------7-----------------------------|
A|-5-------7-7-5h---5-----5----5---7----6/8----------------------|
E|--------------------3h5---3h-----5--5--------------------------|



Verse rythm

Chrous rythm

e|---------------------------------|
B|-10-10-10-10-10------------------|
G|-10-10-10-10-10------------------|
D|-10-10-10-10-10---12--10---------|
A|-8--8--8--8--8------------10--8--|
E|---------------------------------|

e|----------------------------------|
B|--7-------7-------7-------7-------|
G|--7--7-5--7-------7--7-5--7-------|
D|--7-------7-------7-------7-------|
A|--5-------5--3-5--5-------5--3-5--|
E|----------------------------------|
Добавлено: 23.05.2012
Другие материалы по этой песне:
  • Аккорды и текст

Страница создана 23.05.2012
http://primanota.ru/sharon-jones-and-the-dap-kings/be-easy-chords.htm
Привет, Гость.
Предлагаем пройти революционный курс по гитаре.
Подарок от PrimaNota.Ru, забирай!