PrimaNota.ru - самый крупный в мире бесплатный архив песенных текстов, аккордов, табулатур и нот


Sharon Jones And The Dap-kings - 100 Days 100 Nights (album) - таба, видео

Регистрация Запомнить меня
Войти через:  Facebook Google Twitter Vk Yandex Mail.ru

Sharon Jones And The Dap-kings - 100 Days 100 Nights (album) - таба, видео

Печатать
Просмотров: 75
-------------------------------------------------------------------------------
            100 DAYS, 100 NIGHTS - SHARON JONES & THE DAP KINGS
-------------------------------------------------------------------------------
Tabbed by: Ignacio Mendez-Nunez
E-mail: ignacio.mendeznunez@gmail.com

Tuning: Standard

Horn Intro then.....
"100 Days....100 Nights.......Man's Heart
   Am        Am                  Dm       Dm
e|-5---5-----5---5--------------5---5--------------5---5---------------------|
B|-5---5-----5---5--------------6---6-----6\5/6----6---6---------------------|
G|-5---5-----5---5--------------7---7-----7\6/7----7---7---------------------|
D|---------------------------------------------------------------------------|  x2
A|---------------------------------------------------------------------------|
E|---------------------------------------------------------------------------|

And a little more.....
   F7                     E7                    Am
e|----------------------------------------------5--5--5--5-------------------|
B|-------6------------------------5-------------5--5--5--5-------------------|
G|-----8---8-------------------7-----7----------5--5--5--5-------------------|
D|---7----------------------6------------------------------------------------|
A|-8---------------------7---------------------------------------------------|
E|---------------------------------------------------------------------------|


"He may be mellow...... treat you good all the time"
   Am        Am                  Dm       Dm
e|-5---5-----5---5--------------5---5--------------5---5---------------------|
B|-5---5-----5---5--------------6---6-----6\5/6----6---6---------------------|
G|-5---5-----5---5--------------7---7-----7\6/7----7---7---------------------|
D|---------------------------------------------------------------------------|
A|---------------------------------------------------------------------------|
E|---------------------------------------------------------------------------|

"When his true self unfolds...."
   Am        Am                  E7      E7
e|-5---5-----5---5-----------------------------------------------------------|
B|-5---5-----5---5--------------5------4/5-5---7/9--9------------------------|
G|-5---5-----5---5--------------7--------------------------------------------|
D|------------------------------6------5/6-6---7/9--9------------------------|
A|------------------------------7--------------------------------------------|
E|---------------------------------------------------------------------------|

Rest is repeat until

@1:41 ("wait a minute")
e|---------------------------------------------------------------------------|
B|---------------------------------------------------------------------------|
G|---------------------------------------------------------------------------|
D|--7-7-7-7-7-7-7-7-7-7-7-7-7-7-7-7------------------------------------------|
A|---------------------------------------------------------------------------|
E|---------------------------------------------------------------------------|

Same just slowed down after @1:53.........

************************************

| /   slide up
| \   slide down
| h   hammer-on
| p   pull-off
| ~   vibrato
| +   harmonic
| x   Mute note
| b   Bend

************************************

-------------------------------------------------------------------------------
             NOBODY'S BABY - SHARON JONES & THE DAP KINGS
-------------------------------------------------------------------------------
Tabbed by: Ignacio Mendez-Nunez
E-mail: ignacio.mendeznunez@gmail.com

Tuning: Standard
     1st Guitar                          while 2nd guitar does
                                                 Gm            C7
e|-----------------------------------------------3--3----xx----3--3----------|
B|-----------------------------------------------3--3----xx----5--5----------|
G|---------------------------------------------------------------------------|
D|---------------------------------------------------------------------------|
A|--------1-----------------1------------------------------------------------|
E|--1--3-----3--1-----1--3-----3--1------------------------------------------|


Chorus
    Am    Am    D7     D7     x  2       then end on     C7    the last time
e|-5------5------------------------------------------------------------------|
B|-5------5------3-----3---------------------------------1-------------------|
G|-5------5------5-----5---------------------------------3-------------------|
D|-7------7------4-----4---------------------------------2-------------------|
A|-7------7------5-----5---------------------------------3-------------------|
E|-5------5------------------------------------------------------------------|

Chorus Licks (take it slow to get the timing right!)
"I ain't Nobody's Baby.......

e|-14-14-14\12---12--12-12\10---10-10--10\8---8-8-8\7---7-7-7/5---3----------|
B|---------------------------------------------------------------------/7----|
G|-14-14-14\12---12--12-12\11---11-11--11\9---9-9-9\7---7-7-7\5---4----------|
D|---------------------------------------------------------------------/7----|
A|---------------------------------------------------------------------------|
E|---------------------------------------------------------------------------|

2nd Time around                           last hit............."get yourself a new one!"
e|-14-14-14\12---12--12-12\10---10-10--10\8----8-----------------------------|
B|---------------------------------------------------------------------------|
G|-14-14-14\12---12--12-12\11---11-11--11\9----9-----------------------------|
D|---------------------------------------------------------------------------|
A|---------------------------------------------------------------------------|
E|---------------------------------------------------------------------------|


************************************

| /   slide up
| \   slide down
| h   hammer-on
| p   pull-off
| ~   vibrato
| +   harmonic
| x   Mute note
| b   Bend

************************************

-------------------------------------------------------------------------------
                 TELL ME - SHARON JONES & THE DAP KINGS
-------------------------------------------------------------------------------
Tabbed by: Ignacio Mendez-Nunez
E-mail: ignacio.mendeznunez@gmail.com

Tuning: Standard
 Vamp on Abm...............then
e|--4--4--4--4---------------9--9--9--666-----222---2---------6--------------| Hard to hear this last part
B|--4--4--4--4--------------11-11-11--777-----444-----4-------6--------------| so I'm open to improvements!
G|--4--4--4--4--------------11-11-11--888-----444-------4-----6--------------|
D|---------------------------------------------------------------------------|
A|---------------------------------------------------------------------------|
E|---------------------------------------------------------------------------|

Verse and Chorus
    Db           Abm
e|----9---9------4--4--------------------------------------------------------|
B|----9---9------4--4--------------------------------------------------------|
G|---10--10------4--4--------------------------------------------------------|
D|---------------------------------------------------------------------------|
A|---------------------------------------------------------------------------|
E|---------------------------------------------------------------------------|
That's all there is to this song!


************************************

| /   slide up
| \   slide down
| h   hammer-on
| p   pull-off
| ~   vibrato
| +   harmonic
| x   Mute note
| b   Bend

************************************

-------------------------------------------------------------------------------
                        BE EASY - SHARON JONES & THE DAP KINGS
-------------------------------------------------------------------------------
Tabbed by: Ignacio Mendez-Nunez
E-mail: ignacio.mendeznunez@gmail.com

Tuning: Standard
 Intro                          this slide is very fast
e|---------------------------------------------------------------------------|
B|--8b--8b--8b-8b-8b--8------------------------------------------------------|
G|--8b--8b--8b-8b-8b--8------------------------------------------------------|
D|------------------------12--10---------------------------------------------|
A|--------------------------------11\10-----8b-------------------------------|
E|---------------------------------------------------------------------------|

Main Riff
e|--------10--------------------------10-------------------------------------|
B|--------10--------------------------10-------------------------------------|
G|--------11--------------------------11-------------------------------------| x4
D|-------------/12-10-----------------------/12-10---------------------------|
A|---------------------------------------------------------------------------|
E|--10-------------------9-10-----------------------9------------------------|

Some People say..................you gotta fight
e|--------10---------------------------------10------------------------------|
B|--------10---------------------------------12------------------------------|
G|--------11---------------------------------10------/12-10------------------|
D|-------------/12-10------------------------12----------------------------=-|
A|-----------------------------------9-10------------------------------------|
E|--10-------------------9-10----------------------------------9-------------|


Fill/Lick
e|---------------------------------------------------------------------------|
B|-------------8b-8b---------------------------------------------------------|
G|-------------8b-8b---------------------------------------------------------|
D|---12p10h12-----------12--10-----------------------------------------------|
A|---------------------------------------------------------------------------|
E|---------------------------------------------------------------------------|

@ 1:17 (Complicated but stick with me)

   F     G    D               Fast lick     C       G       A7  D   Csus4  C
e|---------------------------------------------------------------------------|
B|-10---12----7-----------------------------------------3----5---7----4----3-|
G|-10---12----7-----------------------------------------4----6---7----3----3-|
D|-10---12----7-----------------10----------5-----------5----5---7----3----3-|
A|-8----10----5-----------------10--8--7--5-5h7--5--5---5--------------------|
E|--------------------------------------------------5h7-3--------------------|


   F     G    D                      C     G    A    Bb
e|---------------------------------------------------------------/10--8--6---|
B|-10---12----7--------------------------------------------------------------|
G|-10---12----7--------------------------------------------------/10--8--7---|
D|-10---12----7----------10----------5-----5----7----8-----------------------|
A|-8----10----5----------10--8--7--5-5h7---5---7-----8-------8---------------|
E|-----------------------------------------3----5----6--8h10-----------------|


************************************

| /   slide up
| \   slide down
| h   hammer-on
| p   pull-off
| ~   vibrato
| +   harmonic
| x   Mute note
| b   Bend

************************************

-------------------------------------------------------------------------------
         WHEN THE OTHER FOOT DROPS, UNCLE- SHARON JONES & THE DAP KINGS
-------------------------------------------------------------------------------
Tabbed by: Ignacio Mendez-Nunez
E-mail: ignacio.mendeznunez@gmail.com

Tuning: Standard
Intro
    C7 (with tremolo)                 B7
e|---------------------------------------------------------------------------|
B|----------5--------------5--------------------4-----------------4----------|
G|-------3----3---------3-----3--------------2-----2-----------2-----2-------|
D|----5---------5-----5---------5---------4-----------4-----4----------------|
A|--3---------------3-------------3----2-----------------2---------------2-1-|
E|---------------------------------------------------------------------------|
    A7                               G7
e|---------------------------------------------------------------------------|
B|-----------2----------------2----------------------------------------------|
G|--------0-----0----------0---------------------4-----------------4---------|
D|-----2----------2-----2--------------------3------3-----------3------------|
A|--0----------------0--------------------5-----------5------5---------0-2---|
E|--------------------------------5--4-3------------------3----------3-------|

e|---------------------------------------------------------------------------|
B|----------5--------------5--------------------4-----------------4----------|
G|-------3----3---------3-----3--------------2-----2-----------2-----2-------|
D|----5---------5-----5---------5---------4-----------4-----4----------------|
A|--3---------------3-------------3----2-----------------2---------------2-1-|
E|---------------------------------------------------------------------------|
    A7                               G7
e|---------------------------------------------------------------------------|
B|-----------2----------------2----------------------------------------------|
G|--------0-----0----------0---------------------4-----------------4---------|
D|-----2----------2-----2--------------------3------3-----------3------------|
A|--0----------------0--------------------5-----------5------5---------------|
E|--------------------------------5--4-3------------------3----------3--2----|

@0:36
"For a day will come....
  E7
e|-----------0-------------------0-------------------------------------------|
B|-----------0-------------------2-----------/5------------------------------|
G|-------1------1-------------2-----2--------/6------------------------------|
D|----2-----------2--------2-----------2-------------------------------------|
A|---------------------0-----------------------------------------------------|
E|-0-------------------------------------------------------------------------|

Chorus
                     A7  A7       E7  E7     (continues between these two chords for a while)
e|--4-----4----------5---5---------------------------------------------------|
B|--5--7--5--7--5----5---5------9--9-----------------------------------------|
G|--------------6----6---6------7--7-----------------------------------------|
D|-------------------5---5------9--9-----------------------------------------|
A|---------------------------------------------------------------------------|
E|---------------------------------------------------------------------------|

@2:07                         "You better pack up and run"
    C7 4x     B7  4x   A7 2x   G7 2x   F#7  A7    F#7   A7......fade out
e|--8-8-8-8--7-7-7-7---5-5-----3-3-----2----5-----2-----5--------------------|
B|--8-8-8-8--7-7-7-7---5-5-----3-3-----2----5-----2-----5--------------------|
G|--9-9-9-9--8-8-8-8---6-6-----4-4-----3----6-----3-----6--------------------|
D|--8-8-8-8--7-7-7-7---5-5-----3-3-----2----5-----2-----5--------------------|
A|---------------------------------------------------------------------------|
E|---------------------------------------------------------------------------|


************************************

| /   slide up
| \   slide down
| h   hammer-on
| p   pull-off
| ~   vibrato
| +   harmonic
| x   Mute note
| b   Bend

************************************

-------------------------------------------------------------------------------
              LET THEM KNOCK - SHARON JONES & THE DAP KINGS
-------------------------------------------------------------------------------
Tabbed by: Ignacio Mendez-Nunez
E-mail: ignacio.mendeznunez@gmail.com

Tuning: Standard
Intro
e|---------------------------------------------------------------------------|
B|---------------------------------------------------------------------------|
G|---------------------------------------------------------------------------|
D|--5---3--------------------------------------------------------------------|
A|--6---5----6--5--3--1--0-----0-1-2-3---------------------------------------|
E|-----------8--6--4--3--1-----1-2-3-4---------------------------------------|

This part is in 6/8 so just mute the two off beats with a triplet
  Eb7                 Ab7
e|---------------------------------------------------------------------------|
B|-8xxx8xxx----------7xxx7xxx------------------------------------------------|
G|-6xxx6xxx----------5xxx5xxx------------------------------------------------|repeat as needed
D|-8xxx8xxx----------6xxx6xxx------------------------------------------------|
A|---------------------------------------------------------------------------|
E|---------------------------------------------------------------------------|

  Ab7 (parenthesis for bass part)       Bb7
e|---------------------------------------------------------------------------|
B|--4-----------------------------------6-------------------------- ---------|
G|--5-----------------------------------7------------------------------------|
D|--4-----------------------------------6------------------------------------|
A|--6---(-----6-8-9-8-6-8--)------------8-----(-----8-10-11-10-8-10)---------|
E|--4---(-/8---------------)------------6-----(-/10----------------)---------|


Cool Fill @0:51   on Bb7
e|-------------------------------10--10--10\8--------------------------------|
B|---/11-11-11--11-----------------------------------------------------------|
G|-------------------------/10---10--10--10\8--------------------------------|
D|---/12-12-12--12-----------------------------------------------------------|
A|---------------------------------------------------------------------------|
E|---------------------------------------------------------------------------|

"You know the world"  @ 1:00                    "nobody but you
     Cm       Bb    Ab      Gm      F               Ab7
e|---------------------------------------------------------------------------|
B|---8--------6-----4-------3-------1--1-1-1--------4------------------------|
G|---8--------7-----5-------3-------2--2-2-2--------5------------------------|
D|--10--------8-----6-------5-------3--3-3-3--------4------------------------|
A|--10--------8-----6-------5-------3--3-3-3--------6------------------------|
E|---8--------6-----4-------3-------1--1-1-1--------4------------------------|

Bridge @2:19 "Listen Now"
                       Cm  (arpeggio)
e|---------------------------------------------------------------------------|
B|---------------------------------------------------------------------------|
G|---------------------------------------------------------------------------|
D|------------------------1--3--5-----3-1------1-3--5---3--1-----------------|
A|--66-6-55-5-44-4-3----3-----------------1--3----------------1--------------|
E|---------------------------------------------------------------------------|

Eb (C shaped is easiest here) (arpeggio)
e|---------------------------------------------------------------------------|
B|-----------4----4----------------------------------------------------------|
G|--------3-------3h5p3----3-------------------------------------------------|
D|-----5-------------------3h5p3---------------------------------------------|
A|--6------------------------------------------------------------------------|
E|---------------------------------------------------------------------------|

e|---------------------------------------------------------------------------|
B|---------------------------------------------------------------------------|
G|---------------------------------------------------------------------------|
D|------------------------1--3--5-----3-1------1-3--5---3--1-----------------|
A|--66-6-55-5-44-4-3----3-----------------1--3----------------1--------------|
E|---------------------------------------------------------------------------|
   It's your looooove I got on my miiiiiind
e|----------------4--3-------------------------------------------------------|
B|-----------4----4--4----3----------4---------------------------------------|
G|--------3---------------5p4--------4---------------------------------------|
D|-----5-----------------------------4---------------------------------------|
A|--6--------------------------------2---------------------------------------|
E|---------------------------------------------------------------------------|

Key Change! So everything up a half step

  A7 (parenthesis for bass part)       B7
e|---------------------------------------------------------------------------|
B|--5-----------------------------------7------------------------------------|
G|--6-----------------------------------8------------------------------------|
D|--5-----------------------------------7------------------------------------|
A|--7---(-----7-9-10-9-7-9-)------------9-----(-----9-11-12-11-9-9)----------|
E|--5---(-/9---------------)------------7-----(-/11----------------)---------|

I'll let you change the chorus and bridge chords for yourself
EVERYTHING STAYS THE SAME JUST UP A HALF STEP


************************************

| /   slide up
| \   slide down
| h   hammer-on
| p   pull-off
| ~   vibrato
| +   harmonic
| x   Mute note
| b   Bend

************************************

-------------------------------------------------------------------------------
               SOMETHING'S CHANGED - SHARON JONES & THE DAP-KINGS
-------------------------------------------------------------------------------
Tabbed by: Ignacio Mendez-Nunez
E-mail: ignacio.mendeznunez@gmail.com

Tuning: Standard
Intro
    A7     A7        Dm         E7
e|--3------3----------5---------12-------------------------------------------|
B|--2------2----------6---------12-------------------------------------------|
G|--2------2----------7---------13-------------------------------------------|
D|--2------2-----------------------------------------------------------------|
A|---------------------------------------------------------------------------|
E|---------------------------------------------------------------------------|
Am                     C
e|--5-------------------5---8------------------------------------------------|
B|--5-------------------5---5------------------------------------------------|
G|--5-------------------5---5------------------------------------------------|
D|--7-------------------5---5------------------------------------------------|   x3
A|--7---------3----5/7-------------------------------------------------------|
E|--5-------5----------------------------------------------------------------|


Chorus
Am                      E7            Am  Am#5  Am6
e|--5------------------------------------------------------------------------|
B|--5--------------------5---5--5--5----1---1---1----------------------------|
G|--5--------------------7---7--7--7----2---2---3----------------------------|
D|--7--------------------6---6--6--6----2---3---4----------------------------|
A|--7---------3----5/8---7---7--7--7---(0)-(0)-(0)---------------------------|
E|--5-----5------------------------------------------------------------------|

Am                      E7              Bm7b5   E7   (min ii-V-i)
e|--5------------------------------------------------------------------------|
B|--5--------------------5---5--5--5------6----5-----------------------------|
G|--5--------------------7---7--7--7------7----7-----------------------------|
D|--7--------------------6---6--6--6------7----6-----------------------------|
A|--7---------3----5/8---7---7--7--7-----------7-----------------------------|
E|--5-----5-------------------------------7----------------------------------|

Solo @ 1:26 - @1:47

First Lick
e|--5------------------------------------------------------------------------|
B|----8--5-------------------------------------------------------------------|
G|----------7-----5b---------------------------------------------------------|
D|-------------7------7----5-5-5----5-----3----2-----------------------------|
A|--------------------------------/7---/5---/3-------------------------------|
E|---------------------------------------------------------------------------|

Will work on the rest soon..... or if somebody wants to transcribe!
e|--5-8-5---------5----------------------------------------------------------|
B|--------8-5---5---5--------------------------------------------------------|
G|------------7-------7-5----------------------------------------------------|
D|---------------------------------------------------------------------------|
A|---------------------------------------------------------------------------|
E|---------------------------------------------------------------------------|
************************************

| /   slide up
| \   slide down
| h   hammer-on
| p   pull-off
| ~   vibrato
| +   harmonic
| x   Mute note
| b   Bend

************************************

-------------------------------------------------------------------------------
                     HUMBLE ME - SHARON JONES & THE DAP-KINGS
-------------------------------------------------------------------------------
Tabbed by: Ignacio Mendez-Nunez
E-mail: ignacio.mendeznunez@gmail.com

Tuning: Standard
Intro
e|---------------------------------------------------------------------------|
B|---------------------------------------------------------------------------|
G|---------------------------------------------------------------------------|
D|----------------------------2---2------------------------------------------|
A|--2-22-2-2-22-2-2--2-22-2-4---4--------------------------------------------|
E|---------------------------------------------------------------------------|

   E  Esus4  E   B B  E      E Esus4  E     B  Bb
e|---------------------------------------------------------------------------|
B|--0--0-----0---4-4--0------0--0-----0-----4--3-----------------------------|
G|--1--2-----1---4-4--1------1--2-----1-----4--3-----------------------------|
D|--2--2-----2---4-4--2------2--2-----2-----4--3-----------------------------|
A|--2--2-----2---2-2--2------2--2-----2-----2--1-----------------------------|
E|---------------------------------------------------------------------------|

   A               B                    E           B
e|---------------------------------------------------------------------------|
B|--------2---------------4-------------0--------------4---------------------|
G|------2---2-----------4---4-----------1------------4---4-------------------|
D|----2---------------4-------4-------2---2--------4-------4---------2---2---|
A|--0-----------1---2---------------2-------2----2---------------2h4---4-----|
E|--------------------------------0------------------------------------------|


   E  Esus4  E   B B  E      E Esus4  E     B  Bb
e|---------------------------------------------------------------------------|
B|--0--0-----0---4-4--0------0--0-----0-----4--3-----------------------------|
G|--1--2-----1---4-4--1------1--2-----1-----4--3-----------------------------|
D|--2--2-----2---4-4--2------2--2-----2-----4--3-----------------------------|
A|--2--2-----2---2-2--2------2--2-----2-----2--1-----------------------------|
E|---------------------------------------------------------------------------|

   A               B                    E           E7
e|---------------------------------------------------------------------------|
B|--------2---------------4-------------0-------------3----------------------|
G|------2---2-----------4---4-----------1-------------1----------------------|
D|----2---------------4-------4-------2---2--------0----0--------------------|
A|--0-----------1---2---------------2-------2----2--------2------------------|
E|--------------------------------0-------------0-----------0----------------|

"Don't let me"
  A          E          A         E
e|-------0---0-----------------0--0----------------0--0--------------0--0----|
B|-------2---0-----------------2--0----------------2--0--------------2--0----|
G|-----2-----1--------------2-----1--------------2----1------------2----1----|
D|---2-------2---2--------2-------2---2--------2------2----------2------2----| x2
A|-0---------2-----4-2--0---------2-----4-2--0--------2--------0--------2----|
E|----------------------------------------------------0--0-2-4----------0----|

"Don't Be afraid"  then to chorus again
e|---------------------------------------------------------------------------|
B|-------4-------------------------------------------------------------------|
G|-----4---4-----------------------------------------------------------------|
D|---4-------4---------------------------------------------------------------|
A|-2-----------2-------------------------------------------------------------|
E|---------------------------------------------------------------------------|

************************************

| /   slide up
| \   slide down
| h   hammer-on
| p   pull-off
| ~   vibrato
| +   harmonic
| x   Mute note
| b   Bend

************************************

-------------------------------------------------------------------------------
                 KEEP ON LOOKING - SHARON JONES & THE DAP-KINGS
-------------------------------------------------------------------------------
Tabbed by: Ignacio Mendez-Nunez
E-mail: ignacio.mendeznunez@gmail.com

Tuning: Standard


e|-/12-12-12\10-10-10-10/12-------/17--15-15-----15-15\12-12--10--10/14------|
B|---------------------------------------------------------------------------|
G|-/14-14-14\12-12-12-12\14-------/19--17-17-----17-17\14-14--12--12/14------|
D|---------------------------------------------------------------------------|
A|---------------------------------------------------------------------------|
E|---------------------------------------------------------------------------|

e|-12\10/12--10--7--3---0----------------------------------------------------|
B|---------------------------------------------------------------------------|
G|-14\12/14--12--9--5---2----------------------------------------------------|
D|---------------------------------------------------------------------------|
A|---------------------------------------------------------------------------|
E|---------------------------------------------------------------------------|

Verse Guitar 1
e|---5-----5-----5-----5----5-----5-----5------------------------------------|
B|---5-----5-----5-----5----5-----5-----5------------------------------------|
G|---5-----5-----5-----5----5-----5-----5------------------------------------|
D|---------------------------------------------------------------------------|
A|---------------------------------------------------------------------------|
E|---------------------------------------------------------------------------|
Verse Guitar 2 (on Guitar 1's off beats)
e|---------------------------------------------------------------------------|
B|--------------------------------------7---7--------------------------------|
G|-5--55-----7-7--5--5----7-------------7h9-7--7---7----7--------------------|
D|-5--55-----7-7--5--5----7-----5--5-----------7h9-7----7--------------------|
A|-7--77---7/9----7--7--7/9-----7--7-----------7-----9-----------------------|
E|---------------------------------------------------------------------------|

@0:48
Bridge
  Dm       x8 then back to previous part
e|-55x5----------------------------------------------------------------------|
B|-66x6----------------------------------------------------------------------|
G|-77x7----------------------------------------------------------------------|
D|---------------------------------------------------------------------------|
A|---------------------------------------------------------------------------|
E|---------------------------------------------------------------------------|

 @1:10       with palm mute and lots of wah
   Am   repeat until    D
e|-55x5---------------55x-5--------------------------------------------------|
B|-66x6---------------77x-7--------------------------------------------------|
G|-77x7---------------77x-7--------------------------------------------------|
D|---------------------------------------------------------------------------|
A|---------------------------------------------------------------------------|
E|---------------------------------------------------------------------------|

Then continues with previous parts (Verse, Bridge etc...)

************************************

| /   slide up
| \   slide down
| h   hammer-on
| p   pull-off
| ~   vibrato
| +   harmonic
| x   Mute note
| b   Bend

************************************

-------------------------------------------------------------------------------
                 ANSWER ME - SHARON JONES & THE DAP-KINGS
-------------------------------------------------------------------------------
Tabbed by: Ignacio Mendez-Nunez
E-mail: ignacio.mendeznunez@gmail.com

Tuning: Standard

Guitar comes in @0: 19
                  D                  G        C
e|----------------10--10--10--10--------------13-----------------------------|
B|----------------10--10--10--10-----12--12---12-----------------------------|
G|----------------11--11--11--11-----12--12---13-----------------------------| Chord 
section repeats
D|-----------------------------------12--12----------------------------------|
A|---3-4-3-5-----------------------------------------------------------------|
E|-5-------------------------------------------------------------------------|

"I may not pray" @0:58
    D        Bm     G  G# A
e|--10-10----7--7---3--4--5----7/9-------------------------------------------|
B|--10-10----7--7---3--4--5--------------------------------------------------|
G|--11-11----7--7---4--5--6----7/9-------------------------------------------|
D|---------------------------------------------------------------------------|
A|---------------------------------------------------------------------------|
E|---------------------------------------------------------------------------|

@02:34 Solo is just some fiddling around on D minor pentatonic......


************************************

| /   slide up
| \   slide down
| h   hammer-on
| p   pull-off
| ~   vibrato
| +   harmonic
| x   Mute note
| b   Bend

************************************

-------------------------------------------------------------------------------
        THE COLLECTION SONG (BONUS TRACK) - SHARON JONES & THE DAP-KINGS
-------------------------------------------------------------------------------
Tabbed by: Ignacio Mendez-Nunez
E-mail: ignacio.mendeznunez@gmail.com

Tuning: Standard

Intro
e|-11--10---9----9-----------------------------------------------------------|
B|-11--10---9----9-----------------------------------------------------------|
G|-11--10---9----9-----------------------------------------------------------|
D|---------------------------------------------------------------------------|
A|---------------------------------------------------------------------------|
E|---------------------------------------------------------------------------|
Main Riff
   F9       Eb9
e|-8888-----6666-----9\8-888---6666------------------------------------------|
B|-8888-----6666-----9\8-888---6666------------------------------------------|
G|-8888-----6666-----9\8-888---6666------------------------------------------|
D|---------------------------------------------------------------------------|
A|---------------------------------------------------------------------------|
E|---------------------------------------------------------------------------|

We got a little bit of Nashville @0:45
over F     Eb                   F     Eb                 F      Eb
e|---------------------------------------------------------------------------|
B|---------------------------------------------------------------------------|
G|---------------------------------------------------------------------------|
D|--5/6-----------------------------3-------------------------3--------------|
A|------8--1---1----3-1----1---/5-----1----1---3-1---1--/5-----1---1---3-1--1|
E|-----------3---3------3----------------3----3-----3------------3---3----3--|

Back to Main Riff/Chorus until @1:50
                                                       Hit at "All I want to"
e|---------------------------------------------------------------------------|
B|-9-------------------------------------------------------------------------|
G|-7-------------------------------------------------------------------------|
D|-8-----6---6--------5---5-------4--4-------3---3------2---2----------------|
A|-----8---8---8-7--7---7---7-6-6--6---6-5-5---5--5-4-4---4----(3)-----------|
E|---------------------------------------------------------------------------|



************************************

| /   slide up
| \   slide down
| h   hammer-on
| p   pull-off
| ~   vibrato
| +   harmonic
| x   Mute note
| b   Bend

************************************
Добавлено: 29.11.2015
Другие материалы по этой песне:
  • Аккорды и текст

Страница создана 29.11.2015
http://primanota.ru/sharon-jones-and-the-dap-kings/100-days-100-nights-album-chords.htm
Привет, Гость.
Предлагаем пройти революционный курс по гитаре.
Подарок от PrimaNota.Ru, забирай!