PrimaNota.ru - самый крупный в мире бесплатный архив песенных текстов, аккордов, табулатур и нот


The Shaolin Afronauts - Kilimanjaro - таба, видео

Регистрация Запомнить меня
Войти через:  Facebook Google Twitter Vk Yandex Mail.ru

The Shaolin Afronauts - Kilimanjaro - таба, видео

Печатать
Просмотров: 103
-------------------------------------------------------------------------------
                             KILIMANJARO - The Shaolin Afronauts
-------------------------------------------------------------------------------
Tabbed by: Zanna
E-mail: lespaul.zanna@gmail.com

Tuning: standard.

There's not much to tab here, but I think a beginner would find it useful. 
There are three guitars, repeating the same pattern over and over.

1st guitar:
e|---------------------------------------------------------------------------|
B|-------------------------------5-4-----------------------------------------|
G|---6-4-----------------------6-----6-4---4-6-------------------------------|
D|-4-----7-6-4---4-----------------------7-----7-----------------------------|
A|-------------7-------------------------------------------------------------|
E|---------------------------------------------------------------------------|

2nd guitar:
e|-14-14--14-14--14-14--14-14--14-14--14-14--14-14--14-14--------------------|
B|-14-14--14-14--14-14--14-14--14-14--14-14--14-14--14-14--------------------|
G|---------------------------------------------------------------------------|
D|---------------------------------------------------------------------------|
A|---------------------------------------------------------------------------|
E|---------------------------------------------------------------------------|

3rd guitar:
e|-2--------------5------4-----2--------------5------4-----------------------|
B|-2--------------5------4-----2--------------5------4-----------------------|
G|-2--------------6------4-----2--------------6------4-----------------------|
D|---------------------------------------------------------------------------|
A|---------------------------------------------------------------------------|
E|---------------------------------------------------------------------------|

Then there's the theme, played by the brass section.

e|---------------------------------------------------------------------------|
B|-6-4----------6-4----------6-4----------6-4--------------------------------|
G|-----7-4-4--------7-4-4--------7-4-4--------7-4-4--------------------------|
D|---------------------------------------------------------------------------|
A|---------------------------------------------------------------------------|
E|---------------------------------------------------------------------------|

e|---------------------------------------------------------------------------|
B|-5-4----------5-4----------6-4---------------------------------------------|
G|-----4-6-6--------4-6-6--------7-4-4----------4-7--------------------------|
D|--------------------------------------------7------------------------------|
A|---------------------------------------------------------------------------|
E|---------------------------------------------------------------------------|
(Repeat the whole theme twice.)

e|-------------------9-------------------------------------------------------|
B|-7--------9----------------------------------------------------------------|
G|-------------------6--------6-4--------------------------------------------|
D|-4--------6---------------------7-4----------------------------------------|
A|---------------------------------------------------------------------------|
E|---------------------------------------------------------------------------|
(Repeat four times the last part, then guitar solo.)
Добавлено: 29.07.2015
Другие материалы по этой песне:
  • Аккорды и текст

Страница создана 29.07.2015
http://primanota.ru/shaolin-afronauts/kilimanjaro-chords.htm
Привет, Гость.
Предлагаем пройти революционный курс по гитаре.
Подарок от PrimaNota.Ru, забирай!