PrimaNota.ru - самый крупный в мире бесплатный архив песенных текстов, аккордов, табулатур и нот


The Shannons - Mr Sunshine Man - бас-таба, видео

Регистрация Запомнить меня
Войти через:  Facebook Google Twitter Vk Yandex Mail.ru

The Shannons - Mr Sunshine Man - бас-таба, видео

Печатать
Просмотров: 54
Tabbed by: 6METAL6BASSIST6
E-mail: petergriffinav@gmail.com

Tuning: EADG

0:04

G|----|
D|----|
A|----|
E|5---|

G|----------------------------------------------------------------|
D|----------------------------------------------------------------|
A|5-----------5-------------------5-----------5-----------------/-|
E|----------------------------5-------------------------------5---|

G|----------------------------------------------------------------|
D|----------------------------------------------------------------|
A|7-----------7---7-------4-------------------------------4---7---|
E|----------------------------7---5-----------5-------7-----------|

0:14

G|----------------------------------------------------------------|
D|----------------------------------------------------------------| x3
A|5-----------5-------------------5-----------5-------------------|
E|----------------------------5-------------------------------5---|

G|----------------------------------------------------------------|
D|----------------------------------------------------------------|
A|5---5-------5---5-----------5---5---5-------5---5-----------5---|
E|----------------------------------------------------------------|

G|----------------------------------------------------------------|
D|----------------------------------------------------------------|
A|7-----------7---7---5---4---------------------------4---5---6---|
E|----------------------------7---5-----------5---5---------------|

G|----------------------------------------------------------------|
D|----------------------------------------------------------------|
A|7-----------7---7-----------7---7-----------7---7---5---4---7---|
E|----------------------------------------------------------------|

G|--------------------------------|
D|--------------------------------|
A|--------------------------------|
E|5-----------5---5-----------5---|

0:40

G|----------------------------------------------------------------|
D|----------------------------------------------------------------| x3
A|5-----------5-------------------5-----------5-------------------|
E|----------------------------5-------------------------------5---|

G|----------------------------------------------------------------|
D|----------------------------------------------------------------|
A|5---5-------5---5-----------5---5---5-------5---5-----------5---|
E|----------------------------------------------------------------|

G|----------------------------------------------------------------|
D|----------------------------------------------------------------|
A|7-----------7---7---5---4---------------------------4---5---6---|
E|----------------------------7---5-----------5---5---------------|

G|----------------------------------------------------------------|
D|----------------------------------------------------------------|
A|7-----------7---7-----------7---7-----------7---7---5---4---7---|
E|----------------------------------------------------------------|

G|--------------------------------|
D|--------------------------------|
A|--------------------------------|
E|5-----------5---5-----------5---|

1:07

G|----------------------------------------------------------------|
D|--------------------------------------------------------4---7---|
A|5-----------5---5---5-----------5---5---5---5---5---7-----------|
E|----------------------------5-----------------------------------|

1:11

G|----------------------------------------------------------------|
D|5---------------5---5-----------5---------------5---5-----------|
A|------------5---------------5---------------5---------------5---|
E|----------------------------------------------------------------|

G|----------------------------------------------------------------|
D|4---------------4---4-----------4---------------4---4-----------|
A|------------4---------------4---------------4---------------5---|
E|----------------------------------------------------------------|

G|----------------------------------------------------------------|
D|5---------------5---5-----------5---------------5---5-----------|
A|------------5---------------5---------------5---------------5---|
E|----------------------------------------------------------------|

G|----------------------------------------------------------------|
D|4---------------4---4-----------4---------------4---4-------4---|
A|------------4---------------4---------------4-----------4-------|
E|----------------------------------------------------------------|

1:27

G|----------------------------------------------------------------|
D|5---------------5---5-----------5---5-------5---5---5-------5---|
A|------------5---------------5-----------------------------------|
E|----------------------------------------------------------------|

G|----------------------------------------------------------------|
D|4-----------4---4---4-------4-----------------------------------|
A|--------------------------------2-----------2---2---2---2-------|
E|----------------------------------------------------------------|

G|----------------------------------------------------------------|
D|----------------------------------------------------------------|
A|0-----------0---0---0-------0---0-----------0---0---0-------0---|
E|----------------------------------------------------------------|

G|----------------------------------------------------------------|
D|--------------------------------8-------8-------8---8---8-------|
A|0-----------0---0---0-------0---------------8---------------8---|
E|----------------------------------------------------------------|

G|--------------------------------|
D|8---------------8---6---5---8---|
A|------------8-------------------|
E|--------------------------------|

1:47

G|----------------------------------------------------------------|
D|----------------------------------------------------------------| x3
A|6-----------6-------------------6-----------6-------------------|
E|----------------------------6-------------------------------6---|

G|----------------------------------------------------------------|
D|----------------------------------------------------------------|
A|6-----------6---6---6-------6---6-----------6---6---6-------6---|
E|----------------------------------------------------------------|

G|----------------------------------------------------------------|
D|----------------------------------------------------------------|
A|8-----------8---8---6---5---------------------------5-------6---|
E|----------------------------8---6-----------6---6---------------|

G|----------------------------------------------------------------|
D|----------------------------------------------------------------|
A|8-----------8---8---8-------8---8-----------8---8---6---5---8---|
E|----------------------------------------------------------------|

G|--------------------------------|
D|--------------------------------|
A|------------------------------/-|
E|6-----------6---6---6-------6---|

2:13

G|----------------------------------------------------------------|
D|----------------------------------------------------------------|
A|10----------6---6---6---6---------------------------5-----------|
E|--------------------------------6-----------6---6---------------|

G|----------------------------------------------------------------|
D|----------------5---6---7---8-----------------------------------|
A|6-----------6---------------------------------------------------|
E|--------------------------------6-----------6-------6---6---6---|

G|--------------------------------------------------------------------|
D|----------------5---6---7---8---------------------------------------| fades out here.
A|6-----------6-------------------------------------------8---8---6---|
E|--------------------------------6-----------6-------6-----6---------|
Добавлено: 27.06.2016
Другие материалы по этой песне:
  • Аккорды и текст

Страница создана 27.06.2016
http://primanota.ru/shannons/mr-sunshine-man-chords.htm
Привет, Гость.
Предлагаем пройти революционный курс по гитаре.
Подарок от PrimaNota.Ru, забирай!