PrimaNota.ru - самый крупный в мире бесплатный архив песенных текстов, аккордов, табулатур и нот


Shannon And The Clams - My Man - аккорды и текст, видео

Регистрация Запомнить меня
Войти через:  Facebook Google Twitter Vk Yandex Mail.ru

Shannon And The Clams - My Man - аккорды и текст, видео

Печатать
Просмотров: 62
My Man
Shannon And The Clams
My Man - Shannon & the Clams (Gone by the Dawn, 2015)

Chords
   C    Am   Em   F    B    Bb   A    G    G#   C#   Bbm
e|-8----5----7----8----7----6----5----3----4----9----6----|
B|-8----5----8----10---7----6----5----3----4----9----6----|
G|-9----5----9----10---8----7----6----4----5----10---6----|
D|-10---7----9----10---9----8----7----5----6----11---8----|
A|-10---7----7----8----9----8----7----5----6----11---8----|
E|-8----5----x----x----7----6----5----3----4----9----6----|  

Intro riff:
e|--------------------------------------------|
B|--------------------------------------------|
G|--------------------------------------------|
D|-------------------------------7------------|
A|------------------7-----10-----------10-----|
E|-----8-----10-------------------------------|

C       Am
My man  My man (x2)
            
            C        Am 
If I, I, I, I should stay
    Em
And see you
        F
Crumble away
              C     F
That would be fine
              C
That would be fine

            C
If I should dig
Am
dig you a grave
    Em
I'd dig it
      F
Right next to mine
               C     F
Wrapped in the hide
               C
Wrapped in the hide

C       Am
My man  My man (x2)

                  C
If you, you, you, you
       Am
Should die tonight
    Em          F
I'd want you to know
            C    F
You were my man
            C
You were my man

              C
If you should stay
Am
One more day
    Em
I'd haunt you
              F
Wouldn't know what to do
                C      F
But cry at your side
            C
Cry at your side

C  B  Bb  A

A                     (A Bb B C)
If I ever loved again
C                     (C B Bb A)
It's because of you 
A                                (A Bb B C)
I took you in and made you well
C                     (C B Bb A)
And you were my man
A                     (A Bb B C)
If I ever loved again
C                     (C B Bb A)
It's because of you
A                              A
I took you in and made you well
F               G   G#
And you were my man

C#  Bb
(solo)

C#       Bbm
My man  My man    (fade out)
Добавлено: 13.04.2016
Другие материалы по этой песне:
  • Аккорды и текст

Страница создана 13.04.2016
http://primanota.ru/shannon-and-the-clams/my-man-chords.htm
Привет, Гость.
Предлагаем пройти революционный курс по гитаре.
Подарок от PrimaNota.Ru, забирай!