PrimaNota.ru - самый крупный в мире бесплатный архив песенных текстов, аккордов, табулатур и нот


Shannon And The Clams - Jimmy - таба, видео

Регистрация Запомнить меня
Войти через:  Facebook Google Twitter Vk Yandex Mail.ru

Shannon And The Clams - Jimmy - таба, видео

Печатать
Просмотров: 119
Jimmy By Shannon and the Clams

Cool Intro !

E|--5---5h7--5------------------------6----5----5-------------6---5-----------------|
B|-----------------7--5---------------6----5------5-----------6---5-----------------|
G|-------------------------6--6s7-----7----6--------6-6s7-----7---6-----------------|
D|----------------------------------------------------------------------------------|
A|----------------------------------------------------------------------------------|
E|----------------------------------------------------------------------------------|

E|--------------------------7----------------------------------------------------|
B|-------------------------7-----------------------------------------------------|
G|------------------------7------------------------------------------------------|
D|-----------------rake^-7-------------------------------------------------------|
A|---0-----2----4----5--5--------------------------------------------------------|
E|-------------------------------------------------------------------------------|

fills
E|-----5---7-----s12---9--7------------------------------------------------------|
B|-------------------------------------------------------------------------------|
G|-------------------------------------------------------------------------------|
D|-------------------------------------------------------------------------------|
A|-------------------------------------------------------------------------------|
E|-------------------------------------------------------------------------------|

E|---------------------------------------------------------------------------------|
B|-----------------------------------6---------------------------------------------|
G|----------------5--------------6-------------------------------------------------|
D|-----------6-------------s7------------------------------------------------------|
A|-----s7--------------------------------------------------------------------------|
E|---------------------------------------------------------------------------------|

E|------2---4bu---2-----0-------------------------------------------------------|
B|------------------------------------------------------------------------------|
G|------------------------------------------------------------------------------|
D|------------------------------------------------------------------------------|
A|------------------------------------------------------------------------------|
E|------------------------------------------------------------------------------|

E|-----------/12--------9-----------7----5---------------------------------------|
B|-------------------------------------------------------------------------------|
G|-------------------------------------------------------------------------------|
D|-------------------------------------------------------------------------------|
A|-------------------------------------------------------------------------------|
E|-------------------------------------------------------------------------------|
Verse


D        G          A         D


D        G          F# WITH THE OPEN E STRING       Bm        F#

Chorus


D        Bm      arpeggiated respectively

A splash of vermouth …………………an olive for garnish………………n there you have it


Thats it for now

Andrew Sebastian Arriola
Добавлено: 16.07.2012
Другие материалы по этой песне:
  • Аккорды и текст

Страница создана 16.07.2012
http://primanota.ru/shannon-and-the-clams/jimmy-chords.htm
Привет, Гость.
Предлагаем пройти революционный курс по гитаре.
Подарок от PrimaNota.Ru, забирай!