PrimaNota.ru - самый крупный в мире бесплатный архив песенных текстов, аккордов, табулатур и нот


Shannon And The Clams - Into A Dream - аккорды и текст, видео

Регистрация Запомнить меня
Войти через:  Facebook Google Twitter Vk Yandex Mail.ru

Shannon And The Clams - Into A Dream - аккорды и текст, видео

Печатать
Просмотров: 35
Into A Dream
Shannon And The Clams
Into a Dream - Shannon and the Clams (Dreams in The Rat House, 2013)

Chords:

     F#       Bb       B       Bm        C#      D#m       F
e|---9--------6--------7--------7--------9--------6--------8----|
B|---11-------6--------7--------7--------9--------7--------10---|
G|---11-------7--------8--------7--------10-------8--------10---|
D|---11-------8--------9--------9--------11-------8--------10---|
A|---9--------8--------9--------9--------11-------6--------8----|
E|------------6--------7--------7--------9----------------------|

Chords in Bridge:

     B        E        A        F#
e|---7--------7--------5--------9----|
B|---7--------9--------5--------11---|
G|---8--------9--------6--------11---|
D|---9--------9--------7--------11---|
A|---9--------7--------7--------9----|
E|---7-----------------5-------------|


Intro/Riff:
                       
e|----------------------------------------------------|
B|----------------------------------------------------|
G|----------------------------------------------------|  OR
D|----------------------------------------------------|
A|----9--999-999-999-999--9---------8--9--8-----------|
E|---------------------------9--11-----------11--9----|


e|----------------------------------------------------|
B|----------------------------------------------------|
G|----------------------------------------------------|  
D|----------------------------------------------------|  
A|-------6--8--9--8--6--------------------------------|
E|----9-----------------9-----------------------------|  
Добавлено: 27.05.2016
Другие материалы по этой песне:
  • Аккорды и текст

Страница создана 27.05.2016
http://primanota.ru/shannon-and-the-clams/into-a-dream-chords.htm
Привет, Гость.
Предлагаем пройти революционный курс по гитаре.
Подарок от PrimaNota.Ru, забирай!