PrimaNota.ru - самый крупный в мире бесплатный архив песенных текстов, аккордов, табулатур и нот


Shannon And The Clams - Blood - таба, видео

Регистрация Запомнить меня
Войти через:  Facebook Google Twitter Vk Yandex Mail.ru

Shannon And The Clams - Blood - таба, видео

Печатать
Просмотров: 136
http://www.myspace.com/shannonandtheclams


hey this is Andrew again this is my 2nd tab....im doing it for the song Blood by 
Shannon and the Clams

http://www.youtube.com/watch?v=K5Mk03QVeCg  check out this Gnar Video !!!!!!!!!!!

Intro
E|------3-3----3-------3---5b--5-5-5-3----3----------------------|
B|-----------5---3--5-------------------5------------------------|
G|---------------------------------------------------------------|
D|---------------------------------------------------------------|
A|---------------------------------------------------------------|
E|---------------------------------------------------------------|


E|----3-3------3---------------------------------------------|
B|--------5--------------3-----------------------------------|
G|--------------- 2--4-------4/2-0------------0--------------|
D|--------------------------------2----0--2------------------|
A|-----------------------------------------------------------|
E|-----------------------------------------------------------|


E|---3-3---3-------3-5b--5--5--5--3---------0---|
B|-------5-----3-5-------------------5--5---0---|
G|----------------------------------------------|
D|----------------------------------------------|
A|----------------------------------------------|
E|----------------------------------------------|

Verse

E  A  B

Chorus

G  C

E|----------------------------------------------------------------|
B|----------------------------------------------------------------|
G|----------------------------------------------------------------|
D|-----------------------------------------0-2-0------------------|
A|--------------0-0-0-0-0--2-2-2-2-2---3------------3-3-3-3-------|
E|--3--3-3-3-3----------------------------------------------------|


E|---------------------------------------------|
B|---------------------------------------------|
G|---------------------------------------------|
D|----------------------5--7b-5----------------|
A|---3-3-3-3------7--7----------7---5----------|
E|---------------------------------------------|

OR IT CAN BE DONE OPEN^


SPILL YOUR BLOOD BREAKDOWN!!!!!!!!!!!!!!!!!!!!!!!!!!

C      A    D      G

THEN THE OTHER PARTS AGAIN

AGAIN I HOPE THIS HELPS OTHER FANS OUT THERE...........................THIS IS THE FIRST SONG  
I HEARD FROM THEM..........

Andrew Sebastian Arriola

Peace Friends

http://www.myspace.com/shannonandtheclams
Добавлено: 04.05.2012
Другие материалы по этой песне:
  • Аккорды и текст

Страница создана 04.05.2012
http://primanota.ru/shannon-and-the-clams/blood-chords.htm
Привет, Гость.
Предлагаем пройти революционный курс по гитаре.
Подарок от PrimaNota.Ru, забирай!