PrimaNota.ru - самый крупный в мире бесплатный архив песенных текстов, аккордов, табулатур и нот


Shankar Ehsaan Loy - Zinda - таба, видео

Регистрация Запомнить меня
Войти через:  Facebook Google Twitter Vk Yandex Mail.ru

Shankar Ehsaan Loy - Zinda - таба, видео

Печатать
Просмотров: 82
Track 1
     Q     Q    Q     Q       Q    Q    Q     Q       Q     Q    Q    Q     
E||------------------------|-----------------------|-----------------------|
B||------------------------|-----------------------|-----------------------|
G||------------------------|-----------------------|-----------------------|
D||-------------9----10----|--7----9---------------|--9----10----7----9----|
A||--7----10---------------|------------7----10----|-----------------------|
E||------------------------|-----------------------|-----------------------|


   Q    Q    Q    Q       Q     Q    Q     Q       Q    Q    Q     Q     
-----------------------|------------------------|-----------------------|
-----------------------|------------------------|-----------------------|
-----------------------|------------------------|-----------------------|
-----------------------|-------------9----10----|--7----9---------------|
--10----9----7---------|--7----10---------------|------------7----10----|
-----------------------|------------------------|-----------------------|


  Q     Q    Q    Q        Q    Q    Q    Q       Q     Q    Q     Q     
-----------------------|-----------------------|-------------7-----8----|
-----------------------|-----------------------|--------8---------------|
-----------------------|-------------9---------|--9---------------------|
--9----10----7----9----|--------9--------------|-------------9----10----|
-----------------------|--10-------------------|--7----10---------------|
-----------------------|-----------------------|------------------------|


   Q    Q    Q     Q       Q     Q     Q    Q        Q    Q    Q    E   
--------7---------------|--7-----8----------7----|---------------------|
--10---------------8----|-------------10---------|---8----7------------|
-------------9----------|------------------------|-------------9-------|
---7----9---------------|--9----10-----7----9----|---------------------|
-------------7----10----|------------------------|--10----9----7-------|
------------------------|------------------------|---------------------|


  E  E  E  E  E  E  E  E     E  E  E  E  E  E  E  E                
--------------------------|--------------------------|-----|-----||
--------------------------|--------------------------|-----|-----||
--------------------------|-----4--6--7-----6--7--9--|-----|-----||
--5--6--7-----------5--6--|--7-----------------------|-----|-----||
-----------5--6--7--------|--------------------------|-----|-----||
--------------------------|--------------------------|-----|-----||




Duration Legend
---------------
W - whole
H - half
Q - quarter
E - 8th
S - 16th
T - 32nd
X - 64th
. - note dotted
|-n-|  - n-tuplets


Tablature Legend
----------------
L - tied note
x - dead note
g - grace note
(n) - ghost note
> - accentuded note
NH - natural harmonic
AH - artificial harmonic
TH - tapped harmonic
SH - semi harmonic
PH - pitch harmonic
h - hammer on
p - pull off
b - bend
br - bendRelease
pb - preBend
pbr - preBendRelease
brb - bendReleaseBend
\n/ - tremolo bar dip
\n - tremolo bar dive
-/n - tremolo bar Release up
/n\ - tremolo bar inverted dip
/n - tremolo bar return
-\n - tremolo bar Release down
S - shift slide
s - legato slide
/ -  slide into from below or out of upwards
\ -  slide into from above or out of downwards
~ - vibrato
W - wide vibrato
tr - trill
TP - tremolo picking
T - tapping
S - slap
P - pop
< - fade in
^ - brush up
v - brush down
Добавлено: 24.06.2013
Другие материалы по этой песне:
  • Аккорды и текст

Страница создана 24.06.2013
http://primanota.ru/shankar-ehsaan-loy/zinda-chords.htm
Привет, Гость.
Предлагаем пройти революционный курс по гитаре.
Подарок от PrimaNota.Ru, забирай!