PrimaNota.ru - самый крупный в мире бесплатный архив песенных текстов, аккордов, табулатур и нот


Shankar Ehsaan Loy - Toh Zinda Ho Tum Zindagi Na Milegi Dobara - таба, видео

Регистрация Запомнить меня
Войти через:  Facebook Google Twitter Vk Yandex Mail.ru

Shankar Ehsaan Loy - Toh Zinda Ho Tum Zindagi Na Milegi Dobara - таба, видео

Печатать
Просмотров: 177
                     Toh Zinda Ho Tum - Shankar Ehsaan Loy (Zindagi Na Milegi Dobara)


Tabbed by: VelvetAssassin

Tuning: Standard (EADGBe)


x-------------x-------------x-------------x-------------x-------------x

   C                  Em
e|--------------------------------|
B|---1-----1----------0-----0-----|
G|-----0-----0----------0-----0---|
D|-------2----------------2-------|   x2 Times
A|-3----------------2-------------|
E|--------------------------------|


   G                   D
e|--------------------------------|
B|---0-----0----------3-----3-----|
G|-----0-----0----------2-----2---|
D|-------0----------------0-------|
A|------------------0-------------|
E|-3------------------------------|


This layout is repeated throughout the intro and till the end of verse.
At 0:56 a slight modification comes into play, which is as follows:

   C                       Em
e|----------------------------------------|
B|---1-----1-----1--------0-----0-----0---|
G|-----0-----0--------------0-----0-------|
D|-------2-----2--------------2-----2-----|   x2 Times
A|-3--------------------2-----------------|
E|----------------------------------------|


   G                        D
e|-----------------------------------------|
B|---0------0-----0--------3-----3-----3---|
G|-----0------0--------------2-----2-------|
D|-------0------0--------------0-----0-----|
A|-----------------------0-----------------|
E|-3---------------------------------------|


x-------------x-------------x-------------x-------------x-------------x


Keep playing this modified tab till fade-out. That's it... beautiful lyrics, beautiful 
music, beautiful song.

ThanQ for reading.
Добавлено: 18.05.2012
Другие материалы по этой песне:
  • Аккорды и текст

Страница создана 18.05.2012
http://primanota.ru/shankar-ehsaan-loy/toh-zinda-ho-tum-zindagi-na-milegi-dobara-chords.htm
Привет, Гость.
Предлагаем пройти революционный курс по гитаре.
Подарок от PrimaNota.Ru, забирай!