PrimaNota.ru - самый крупный в мире бесплатный архив песенных текстов, аккордов, табулатур и нот


Shania Twain - I Ain't No Quitter - текст песни, бас-таба, видео

Регистрация Запомнить меня
Войти через:  Facebook Google Twitter Vk Yandex Mail.ru

Shania Twain - I Ain't No Quitter - текст песни, бас-таба, видео

Печатать
Просмотров: 139
-------------------------------------------------------------------------------
                             I Ain't No Quitter - Shania Twain
-------------------------------------------------------------------------------
Tabbed by: Mike Kunz
E-mail: rmjk21@embarqmail.com

Tuning: Standard


  Intro            he ropes, he rides
G|----------------|-------------------------------------------------|
D|----------------|-----------------------------------5-7-5---5-7-5-|
A|---66--66-------|---5-7-5---5-7-5---5-7-5---5-7-5-6-------6-------|
E|----------------|-6-------6-------6-------6-----------------------|

  calls me up when he's had too much
G|-----------------------------------------------------------------|
D|---5-7-5---5-7-5-------------------------------------------------|
A|-6-------6---------3-6-3---3-6-3---3-6-3---3-6-3---5-7-5---5-7-5-|
E|-----------------4-------4-------4-------4-------6-------6-------|

  I ain't no quitter
G|-----------------------------------------------------------------|
D|-------------------5-7-5---5-7-5---5-7-5---5-7-5-----------------|
A|---5-7-5---5-7-5-6-------6-------6-------6---------3-6-3---3-6-3-|
E|-6-------6---------------------------------------4-------4-------|

  just yet..
G|-------------------------------------------------|
D|---5-7-5---5-7-5-------------------5-7-5---5-7-5-|
A|-6-------6---------3-6-3---3-6-3-6-------6-------|
E|-----------------4-------4-----------------------|

  no he won't quit
G|--------------------------------|
D|--------------------------------|
A|----------3-6-3---5-7-5---5-7-5-|
E|111133334-------6-------6-------|


  I ain't no quitter                          he struts, he strolls
G|-------------------------|----------------|---------------------------------|
D|-----------5-7-5---5-7-5-|----------------|---------------------------------|
A|---5-7-5-6-------6-------|--66--66--------|---5-7-5---5-7-5---5-7-5---5-7-5-|
E|-6-----------------------|----------------|-6-------6-------6-------6-------|

  he's a beauter
G|-------------------------------------------------------------------------|
D|---5-7-5---5-7-5---5-7-5---5-7-5-----------------------------------------|
A|-6-------6-------6-------6---------3-6-3---3-6-3---3-6-3---3-6-3---5-7-5-|
E|---------------------------------4-------4-------4-------4-------6-------|

  to me and says
G|-------------------------------------------------------------------------|
D|---------------------------5-7-5---5-7-5---5-7-5---5-7-5-----------------|
A|---5-7-5---5-7-5---5-7-5-6-------6-------6-------6---------3-6-3---3-6-3-|
E|-6-------6-------6---------------------------------------4-------4-------|

  just yet...
G|-------------------------------------------------|
D|---5-7-5---5-7-5-------------------5-7-5---5-7-5-|
A|-6-------6---------3-6-3---3-6-3-6-------6-------|
E|-----------------4-------4-----------------------|

 no he won't quit 
G|--------------------------------|
D|--------------------------------|
A|----------3-6-3---5-7-5---5-7-5-|
E|111133334-------6-------6-------|

  ain't no quitter                           ( interlude )
G|-------------------------|----------------|---------------------------------|
D|-----------5-7-5---5-7-5-|----------------|---------------------------------|
A|---5-7-5-6-------6-------|--66--66--------|---5-7-5---5-7-5---5-7-5---5-7-5-|
E|-6-----------------------|----------------|-6-------6-------6-------6-------|

  ( interlude )
G|-------------------------------------------------------------------------|
D|---5-7-5---5-7-5---5-7-5---5-7-5-----------------------------------------|
A|-6-------6-------6-------6---------3-6-3---3-6-3---3-6-3---3-6-3---5-7-5-|
E|---------------------------------4-------4-------4-------4-------6-------|

   to me and says
G|-------------------------------------------------------------------------|
D|---------------------------5-7-5---5-7-5---5-7-5---5-7-5-----------------|
A|---5-7-5---5-7-5---5-7-5-6-------6-------6-------6---------3-6-3---3-6-3-|
E|-6-------6-------6---------------------------------------4-------4-------|

  just yet..       I'm as stuck 
G|----------------------------------------------------------------|
D|---5-7-5---5-7-5------------------5-7-5---5-7-5-----------------|
A|-6-------6--------3-6-3---3-6-3-6-------6---------3-6-3---3-6-3-|
E|----------------4-------4-----------------------4-------4-------|

  just yet
G|-------------------------------------------------|
D|---5-7-5---5-7-5-------------------5-7-5---5-7-5-|
A|-6-------6---------3-6-3---3-6-3-6-------6-------|
E|-----------------4-------4-----------------------|

 no he won't quit 
G|--------------------------------|
D|--------------------------------|
A|----------3-6-3---5-7-5---5-7-5-|
E|111133334-------6-------6-------|


  I ain't no quitter
G|-----------------------------------------------------------------|
D|------------5-7-5---5-7-5------------------5-7-5---5-7-5---------|
A|---5-7-5--6-------6--------5-7-5---5-7-5-6-------6---------5-7-5-|
E|-6-----------------------6-------6-----------------------6-------|

  I ain't no quitter
G|-------------------------------|
D|-------------------5-7-5-------|
A|---5-7-5---5-7-5-6-------6---6-|
E|-6-------6-----------------6---|
Добавлено: 07.09.2013
Другие материалы по этой песне:
  • Аккорды и текст

Страница создана 05.04.2012
http://primanota.ru/shania-twain/i-aint-no-quitter-chords.htm
Привет, Гость.
Предлагаем пройти революционный курс по гитаре.
Подарок от PrimaNota.Ru, забирай!