PrimaNota.ru - самый крупный в мире бесплатный архив песенных текстов, аккордов, табулатур и нот


Shane Bernard - Answer - таба, видео

Регистрация Запомнить меня
Войти через:  Facebook Google Twitter Vk Yandex Mail.ru

Shane Bernard - Answer - таба, видео

Печатать
Просмотров: 96
This is the 2nd guitar part from "The Answer" by "Shane and Shane". This tab was made by
buddy "Albert K." and was edited by me, "Eric Chang."

If you would like to hear this part played, please visit the following website :

http://www.youtube.com/watch?v=A2MSgCH0qiU&search=shane%20the%20answer


also, the chords may seem to be "incorrect", but the way the chords are tabbed are the
that they are to be played for this particular song.


Notes : The song will be broken up into 3 parts (verse, bridge, chorus) like how I
it.


The accompaniment part is on the 4th capo, and you'll be playing chords in C major. It
consists of variations of: C, F, Am, G, and one odd-ball chord that I dont know the name of.


Verse: All finger picking-- if you pick it exactly the number of times its written, you
be spot on. After that, just repeat the 4 chord sections as many as they do (i think
in one verse)


Anyways.... without further delay.......... "The Answer" ENJOY!

1st chord is variation of Am

e-----------------|
B-------------1---|
G--2-2------h2----|
D--2-2----h2------|
A--0-0---0--------|
E-----------------|


Next is G Variation

e-----------------|
B--0-0---1-3-3--5-| <---- i think the 5 sounds better than the original
G--0-0---0-0------|
D------0----------|
A-----------------|
E--3-3---3-3------|


Next is the D variation

e---------------|
B--3-3--------3-|
G--2-2-----h2---|
D--------0------|
A---------------|
E--2-2-h2-------|


Next is the chord with no name ( found out this is F Variation )


e----------------|
B-1-1---1-0-1----|
G-0-0---0-0-0----|
D-----0----------|
A----------------|
E-1-1---1-1-1----|


Bridge - The easiest part; all strumming. I'll just tab out the chords, but keep in mind
each chord gets a whole measure (4 quarter notes, or/aka 4 strums)

Am

e--0---|
B--0---|
G--2---|
D--2---|
A--0---|
E--0---|

G

e--0---|
B--0---|
G--0---|
D--0---|
A--x---
E--3---


D

e--0---|
B--3---|
G--2---|
D--0---|
A--x---
E--2---


F

e--3---|
B--1---|
G--2---| (you can do a hammer off on this 2 in the end)
D--3---|
A--0---|
E--x---


Chorus: This is by far, the hardest part (I think). Its mostly picking with a few strums
here and there.

Alright guys... After a long wait, I, Eric Chang finally made the tab for the chorus 
of the song for those of you couldn't figure it out, even though it wasn't that hard to 
up by ear.. anyways, here you go

e|-------------------------|
B|-------1---------1-------|
G|-----0---0-----0---0-----|
D|--h2--------h2-----------|
A|-------------------------|
E|-------------------------|

e|-----------3-1-0-|
B|-------3---------|
G|-----0---0-------|
D|-----------------|
A|-0h2-------------|
E|-----------------|

e|-----0-----------|
B|-0h1---1-1h3-3-1-|
G|-----------------|
D|-----------------|
A|-----------------|
E|-----------------|

e|---3---3-3-3---3-3-|
B|---0h1-0-0-0h1-0-0-|
G|---0---0-0-0---0-0-|
D|---0---0-0-0---0-0-|
A|---2---2-2-2---2-2-|
E|-3-3---3-3-3---3-3-|

e|-------------------------|
B|-----------0-1-3-1-0-----|
G|-------0-2-----------2-0-|
D|-0-2-3-------------------|
A|-------------------------|
E|-------------------------|

the rest of the song of the song are just repeats and strum variations, it should be 
to pick up by ear.


good luck!
Добавлено: 27.07.2012
Другие материалы по этой песне:
  • Аккорды и текст

Страница создана 15.03.2012
http://primanota.ru/shane-bernard/answer-chords.htm
Привет, Гость.
Предлагаем пройти революционный курс по гитаре.
Подарок от PrimaNota.Ru, забирай!