PrimaNota.ru - самый крупный в мире бесплатный архив песенных текстов, аккордов, табулатур и нот


Shandon - My Friends - аккорды и текст, видео

Регистрация Запомнить меня
Войти через:  Facebook Google Twitter Vk Yandex Mail.ru

Shandon - My Friends - аккорды и текст, видео

Печатать
Просмотров: 24
Уроки эстрадного вокала в Санкт-Петербурге
My Friends
Shandon
     A    C#m   Bm    D    E   F#m    B   A    C#    D    E    E     F#
e|---7-----4----2-----5----7----2---|------------------------------------|
B|---7-----5----3-----7----9----2---|------------------------------------|
G|---6-----6----4-----7----9----2---|-4--------6-----7----9--------------|
D|--(7)---(6)--(4)---(7)--(9)--(4)--|-4---7----6-----7----9----2------4--|
A|--(7)---(4)--(2)---(5)--(7)--(4)--|-2---7----4-----5----7----2------4--|
E|--(5)---(4)--(2)---(5)--(7)--(2)--|-----5--------------------0------2--|
 
        ska parts                               overdrive parts

[Intro]

e|--------5----------4------------2-----------------4-----------|
B|--------5----------5------------3-----------------5-----------|
G|--------6----------6------------4-----------------6-----------|
D|--------7--------6---6--------4---4-------------6---6---------|
A|------7---7----4------------2-----------------4---------------|
E|----5---------------------------------------------------------|
      A          C#m          Bm                C#m              
      Oh                      thanks for all my friends   

e|--------5----------4------------2--------------7--------------|
B|--------5----------5------------3--------------9--------------|
G|--------6----------6------------4--------------9--------------|
D|--------7--------6---6--------4---4------------9--------------|
A|------7---7----4------------2------------------7--------------|
E|----5---------------------------------------------------------|
      A          C#m          Bm                 E         
      Oh         Oh           thanks to all that let me strand   


[Verse]

A                        C# 
When I start thinking of you
      B 
Of my present and past friends
         E
I see me then inside a shell
A                    C#              
No refuge nothing to do
        D 
So they were my family
         E 
I didn't know what could it mean


[Bridge]

F#               A  
They found their way
D          E  
So nice so straight
F#         A        D  A
They found their way
D          E  
No time to stay


[Chorus]

A  C#m  Bm                C#m          
Oh      thanks for all my friends
A  C#m  Bm                 C#m 
Oh      thanks to all that let me strand

RIFF (da fare quando canta "strand") :
e|---4--4--4h5p4----|
B|---5--5--5--------|
G|------------------|
D|------------------|
A|------------------|
E|------------------|

A  C#m  Bm                C#m          
Oh      thanks for all my friends
A  C#m  Bm                 E
Oh      thanks to all that let me strand


[Verse]

A                       C# 
Some of them around the world
        B  
Someone else is still in touch
        E 
Most of them have stopped to learn
A                       C#  
One of us just seems to lose
        D 
For his scare to be betrayed
       E 
He's behaving like a slave


[Bridge]

F#m              A 
they found their way
D          E 
so nice so straight
F#m              A 
they found their way
D          E
no time to stay


[Chorus]

A  C#   D                 E  
oh      thanks for all my friends
A  C#   D                  E 
oh      thanks to all that let me strand
A  C#   D                 E 
oh      thanks for all my friends
A  C#   D                  E 
oh      thanks to all that let me strand 

alternate ending:
e|----------|
B|----10----|
G|----------|
D|----7-----|
A|----------|
E|----------|
Добавлено: 25.09.2017
Другие материалы по этой песне:
  • Аккорды и текст

Страница создана 25.09.2017
http://primanota.ru/shandon/my-friends-chords.htm
Привет, Гость.
Предлагаем пройти революционный курс по гитаре.
Подарок от PrimaNota.Ru, забирай!