PrimaNota.ru - самый крупный в мире бесплатный архив песенных текстов, аккордов, табулатур и нот


Shandon - Liquido - аккорды и текст, видео

Регистрация Запомнить меня
Войти через:  Facebook Google Twitter Vk Yandex Mail.ru

Shandon - Liquido - аккорды и текст, видео

Печатать
Просмотров: 23
Уроки эстрадного вокала в Санкт-Петербурге
Liquido
Shandon
D  Em   G   A       B  A  G  E  D  A#
e|--5---7---3---5---|---------------------|
B|--7---8---3---5---|---------------------|
G|--7---9---4---6---|---------------7-----|
D|--7---9---5---7---|---9--7--5--2--7--8--|
A|--5---7---5---7---|---9--7--5--2--5--8--|
E|----------3---5---|---7--5--3--0-----6--|
       ska parts            punk parts

--------------------------------------------------------------------------

[RIFF1]
e|------------------|
B|------------------|
G|------------------|
D|------------------|
A|----------5-------|
E|----5--7----------|

[Intro]

C# D C# D  x3
A  A A  A
C# D C# D  x4
C# D C# D  x3
A  A A  A


[Bridge]

D Em G A x2


[Verse]

D       Em            G             A
Ovunque guardi no,non posso più scappare
D       Em              G              A
Ovunque inciampo no,non chiedermi perchè
D          Em        G             A    A# A
Mi trovo a riderci oppure a bestemmiare
D        Em             G            A
Questa ferita aperta continua a fare male ancora


[Bridge]

B      A            E G  
Ogni minuto di realtà    (riff1)
B          A            E G  
Non c'è criterio né viltà    (riff1)
B            A        A E  G  
Quei pochi istanti di magia    (riff1)
B      A            E G A
Assuefazione ed agonia


[Chorus]

D                    G               A
Liquido spegnimi risolvi tutti i miei problemi
D                    G               A
Liquido spegnimi sin quando il corpo mio si sveglierà


[Bridge]

D Em G A x2


[Verse]

D         Em           G             A
Non posso crederci che sia così istintivo
D      Em          G               A  A# A
Necessità di avere ciò che mi aiuterà
D          Em          G                A
Riprendo a scrivere ho ancora un po' di me
D            Em          G             A
Non sto a rifletterci mi lascio trasportare ancora

[Bridge] D Em G A x2


[Chorus]

D                  G          A
Liquido spegnimi a fine di questa giornata
D                       G           A
Liquido spegnimi fai in modo che tutto scompaia
D                   G           A
Liquido spegnimi riportami a sognare ancora
D                   G               A
Liquido spegnimi sin quando il corpo mio si sveglierà 


[Outro]

e|------------------------------|
B|------------------------------|
G|-7----6/7----6/7----9---12----|
D|------------------------------|
A|-5----4/5----4/5----7---10----|
E|------------------------------|
   D      E      G    A
                  il corpo mio si sveglierà 

e|------------------------------|
B|------------------------------|
G|-7----6/7----6/7----9------12-|
D|------------------------------|
A|-5----4/5----4/5----7------10-|
E|------------------------------|
   D      E      G    A
                  il corpo mio si sveglierà.. 

e|------------------------------|
B|------------------------------|
G|-7----6/7----6/7----9------12-|
D|------------------------------|
A|-5----4/5----4/5----7------10-|
E|------------------------------|
   D      E      G    A             

e|----------------------------|  |------|
B|----------------------------|  |------|
G|-11---9/11----9/11--12--14--|  |--11--|
D|----------------------------|x2|------|
A|-9----7/9-----7/9---10--12--|  |--9---|
E|----------------------------|  |------|
   D      D       G   A             D



************************************

| x  Dead note
| /  Slide up

************************************
Добавлено: 25.09.2017
Другие материалы по этой песне:
  • Аккорды и текст

Страница создана 25.09.2017
http://primanota.ru/shandon/liquido-chords.htm
Привет, Гость.
Предлагаем пройти революционный курс по гитаре.
Подарок от PrimaNota.Ru, забирай!