PrimaNota.ru - самый крупный в мире бесплатный архив песенных текстов, аккордов, табулатур и нот


ShamRain - A Woeful Song - бас-таба, видео

Регистрация Запомнить меня
Войти через:  Facebook Google Twitter Vk Yandex Mail.ru

ShamRain - A Woeful Song - бас-таба, видео

Печатать
Просмотров: 33
Уроки эстрадного вокала в Санкт-Петербурге
ShamRain - A Woeful Song
Tuning: Standard


Intro:
G|-------------------------|----------|
D|-------------------------|----------|
A|---0-----------------7---|----------|
E|---------1-----3---------|---12/5---|
            (x 2)


Chorus & bridge:
G|---------------------------------------|
D|---------------------------------------|
A|---------------------------------------|
E|---5---5-5/8---8-8/3---3-3/1---1-1/5---|
                  (x 2)


Verse (repeated many times):
G|-----------------------------------|
D|-----------------------------------|
A|---0---0-------------------7---7---|
E|-----------1---1---3---3-----------|
Добавлено: 15.02.2016
Другие материалы по этой песне:
  • Аккорды и текст

Страница создана 15.02.2016
http://primanota.ru/shamrain/woeful-song-chords.htm
Привет, Гость.
Предлагаем пройти революционный курс по гитаре.
Подарок от PrimaNota.Ru, забирай!