PrimaNota.ru - самый крупный в мире бесплатный архив песенных текстов, аккордов, табулатур и нот


ShamRain - Usvameri - бас-таба, видео

Регистрация Запомнить меня
Войти через:  Facebook Google Twitter Vk Yandex Mail.ru

ShamRain - Usvameri - бас-таба, видео

Печатать
Просмотров: 52
-------------------------------------------------------------------------------
                            USVAMERI - ShamRain
-------------------------------------------------------------------------------

Tuning: Standard


Verse ("She sat alone..."):
G|-------------------------|
D|-------------------------|
A|---------------5-----0---|
E|---1-----0---------------|


Pre-chorus ("Looked into the waves..."):
G|--------------------------------|
D|--------------------------------|
A|---8-----0--7-----5-----3---2---|
E|--------------------------------|


Chorus ("He came along to her side..."):
G|-----------------------------------------------------------------------|
D|-----------------------------------------------------------------------|
A|---0-2---0---0-----0-2---0---0-----8-0-10-8---8-----8-0-10-8--10-8-7---|
E|-----------------------------------------------------------------------|

G|----------------------------------------------------------|
D|----------------------------------------------------------|
A|---7-0-2-0---0-----0-2---2-----8--7--7/10---12--/14--12---|
E|----------------------------------------------------------|


Break has no bass, bass kicks in after the violins for a 2nd chorus.

Bridge to solo and solo (after 2nd chorus):
G|-----------------------------------------------------------------------|
D|-----------------------------------------------------------------------|
A|---0-2---0---0-----0-2---0---0-----8-0-10-8---8-----8-0-10-8--10-8-7---|
E|-----------------------------------------------------------------------|

G|----------------------------------------------|
D|----------------------------------------------|
A|---7-0-2-0---0-----0-2---2-----8--7----3--2---|
E|----------------------------------------------|


Song ends with:
G|-------|
D|-------|
A|---0---|
E|-------|


| /  slide up

===============================================================================
Добавлено: 15.02.2016
Другие материалы по этой песне:
  • Аккорды и текст

Страница создана 15.02.2016
http://primanota.ru/shamrain/usvameri-chords.htm
Привет, Гость.
Предлагаем пройти революционный курс по гитаре.
Подарок от PrimaNota.Ru, забирай!