PrimaNota.ru - самый крупный в мире бесплатный архив песенных текстов, аккордов, табулатур и нот


ShamRain - Still Aeon - таба, видео

Регистрация Запомнить меня
Войти через:  Facebook Google Twitter Vk Yandex Mail.ru

ShamRain - Still Aeon - таба, видео

Печатать
Просмотров: 100
Уроки эстрадного вокала в Санкт-Петербурге
ShamRain - Still Aeon
Tuning: Standard


Main riff:
E---------------------------------|
B---------------------------------|
G---2/4-/2/4-/2/4/2/4-4/7-7-7-7---|
D---------------------------------|
A---------------------------------|
E---------------------------------|

E--------------------------------|
B--------------------------------|
G---2/4-/2/4-/2-2-0-0--0---------|
D------------------------4-4-4---|
A--------------------------------|
E--------------------------------|

E---------------------------------|
B---------------------------------|
G---2/4-/2/4-/2/4/2/4-4/7-7-7-7---|
D---------------------------------|
A---------------------------------|
E---------------------------------|

E---------------------------------------|
B---------------------------------------|
G---7-9-7-9-7-9/12-12-12-12--11-11-11---|
D---------------------------------------|
A---------------------------------------|
E---------------------------------------|


Verse:
E-------------|
B---------5---|
G---0-2-4-----|
D-------------|
A-------------|
E-------------|


Chorus (acoustic):
Am Em


Outro:
E------------------|---|
B---5-7-8-10-8-7---|-5-|
G------------------|---|
D------------------|---|
A------------------|---|
E------------------|---|
Добавлено: 15.02.2016
Вам также может быть интересно:
Другие материалы по этой песне:
  • Аккорды и текст

Страница создана 15.02.2016
http://primanota.ru/shamrain/still-aeon-chords.htm
Привет, Гость.
Предлагаем пройти революционный курс по гитаре.
Подарок от PrimaNota.Ru, забирай!