PrimaNota.ru - самый крупный в мире бесплатный архив песенных текстов, аккордов, табулатур и нот


ShamRain - Sound Of Snow - таба, бас-таба, видео

Регистрация Запомнить меня
Войти через:  Facebook Google Twitter Vk Yandex Mail.ru

ShamRain - Sound Of Snow - таба, бас-таба, видео

Печатать
Просмотров: 51
ShamRain - Sound of Snow
Tuning: Standard


Intro (acoustic chords):
F Am Em


Intro background guitar (distorted):
E-------------------------------------|
B-------------------------------------|
G---5-5-5-5-5-4-4-4-7-7-7-7-7-5-5-5---|
D-------------------------------------|
A-------------------------------------|
E-------------------------------------|

E---------------------------------|
B---5-5-5-5-5-5-5-5-6-6-6-5/3-----|
G-----------------------------5---|
D---------------------------------|
A---------------------------------|
E---------------------------------|

E----------------------------------------------------------|
B----------------------------------------------------------|
G---5-5-5-5-5-4-4-4----------------------------------------|
D-------------------7-7-7-7-7-9-9-9------9-9-9-7-7-7-7-7---|
A----------------------------------------------------------|
E----------------------------------------------------------|


Verse (clean):
E-----------------0------------------0---|
B-------1-------1---------0--------0-----|
G-----2-------2---------0--------0-------|
D---2-------2---------0--------0---------|
A----------------------------------------|
E----------------------------------------|
    (Am)


Solo:
E-----------------------------------------------------------------|
B-----------------------------------------------------------------|
G---7-7-7-9-9-9-12-12-10-10-10-10-10-10-10-10-10-10-10-10-10-10---|
D-----------------------------------------------------------------|
A-----------------------------------------------------------------|
E-----------------------------------------------------------------|

E----------------------------------------------------------------------------------|
B---------------------------------------------------------10-10-10-10-10-10-10-10--|
G---12-12-9-9-9-9-9-9-9-9-9-9-9-9-10-10-10-12-12-12-12-12--------------------------|
D----------------------------------------------------------------------------------|
A----------------------------------------------------------------------------------|
E----------------------------------------------------------------------------------|

E-----------------------------------------------------------------------------|
B---12-12-12-12-12-12-12-12-13-13-13-13-13-13-13-13-12-12-12-12-12-12-12-12---|
G-----------------------------------------------------------------------------|
D-----------------------------------------------------------------------------|
A-----------------------------------------------------------------------------|
E-----------------------------------------------------------------------------|

E---10-10-10-8-8-8-7-7-10-10-10-8-8-8-7-7-8-8-8-7-7-7-------|
B-----------------------------------------------------8-8---|
G-----------------------------------------------------------|
D-----------------------------------------------------------|
A-----------------------------------------------------------|
E-----------------------------------------------------------|

E---8-8-8-7-7-7-8-8-5-5-5-7-7-7-8-8-7-7-7-8-8-8-10-10---|
B-------------------------------------------------------|
G-------------------------------------------------------|
D-------------------------------------------------------|
A-------------------------------------------------------|
E-------------------------------------------------------|

E---------------------------------------|
B---5-5-5-8-8-8-8-8---------------------|
G-------------------7-7-7-5-5-5-4-4-----|
D-----------------------------------7---|
A---------------------------------------|
E---------------------------------------|
Добавлено: 06.04.2016
Другие материалы по этой песне:
  • Аккорды и текст

Страница создана 15.02.2016
http://primanota.ru/shamrain/sound-of-snow-chords.htm
Привет, Гость.
Предлагаем пройти революционный курс по гитаре.
Подарок от PrimaNota.Ru, забирай!