PrimaNota.ru - самый крупный в мире бесплатный архив песенных текстов, аккордов, табулатур и нот


ShamRain - Laren U Freht Ona - таба, бас-таба, видео

Регистрация Запомнить меня
Войти через:  Facebook Google Twitter Vk Yandex Mail.ru

ShamRain - Laren U Freht Ona - таба, бас-таба, видео

Печатать
Просмотров: 74
Уроки эстрадного вокала в Санкт-Петербурге
ShamRain - Laren U Freht Ona
Tuning: Standard


Background melody for intro and verses:
E----------------------------------------------------------|
B----------------------------------------------------------|
G----------------------------------------------------------|
D------------------9------------------------------10--12---|
A---7--7-9-10---7-----10-------12---10---9-10-12-----------|
E----------------------------------------------------------|


Chorus chords:
Em C D Bm


Outro:
E----------------------------------------0-------|
B---------3-----3------------------3-------3-----|
G-----0-----0-----0------------------0-----------|
D---2---2-----2------------------2-----2-----2---|
A------------------------------------------------|
E------------------------------------------------|

E------------------------------------------------|
B-----1---1-0---1------------------1-0---1-0-----|
G---2---2-----2---2--------------2-----2-----2---|
D------------------------------------------------|
A------------------------------------------------|
E------------------------------------------------|


Outro continues with chords:
Em Am
Добавлено: 06.04.2016
Другие материалы по этой песне:
  • Аккорды и текст

Страница создана 15.02.2016
http://primanota.ru/shamrain/laren-u-freht-ona-chords.htm
Привет, Гость.
Предлагаем пройти революционный курс по гитаре.
Подарок от PrimaNota.Ru, забирай!