PrimaNota.ru - самый крупный в мире бесплатный архив песенных текстов, аккордов, табулатур и нот


ShamRain - Goodbyes Painted Black - таба, бас-таба, видео

Регистрация Запомнить меня
Войти через:  Facebook Google Twitter Vk Yandex Mail.ru

ShamRain - Goodbyes Painted Black - таба, бас-таба, видео

Печатать
Просмотров: 45
Sham Rain - Goodbyes Painted Black
Tuning: Standard

As you can see, most of the notes are very close to each other with
lots of slides in-between, so only the D-string is really used
(and some A). The reason why I split the song in so short parts at
a time, is because the song repeats a lot and IMO the tab is easier
to read and compare like this.


Intro (continues playing in the background):
E------------------------|
B------------------------|
G------------------------|
D-----3--6-3--6-3--6-3---|
A---3--------------------|
E------------------------| (x 2)

E------------------------|
B------------------------|
G------------------------|
D-----2--5-2--5-2--5-2---|
A---3--------------------|
E------------------------| (x 2)


Intro guitar 2 (rises slowly):
E--------------------------------------------|
B--------------------------------------------|
G--------------------------------------------|
D---5---6---5--/--2--/--6--/--8--/--5--/--3--|
A--------------------------------------------|
E--------------------------------------------|


This plays background later in the verse:
E-----------------------------|
B-----------------------------|
G-----------------------------|
D---5---/6--/5/3--/6--5--/2---|
A-----------------------------|
E-----------------------------|

E--------------------------------|
B--------------------------------|
G--------------------------------|
D---/6--/5/3--/6--/8---/5---/3---|
A--------------------------------|
E--------------------------------|

Solo 1:
E-----------------------------------|
B-----------------------------------|
G-----------------------------------|
D---5b6b5-3---3-3-5-6-5---5/2--/5---|
A-----------------------------------|
E-----------------------------------|

E----------------------------------|
B----------------------------------|
G----------------------------------|
D---5b6b5-3---3-3-5-6-8---8/5--6---|
A----------------------------------|
E----------------------------------|

E-------------------------------------|
B-------------------------------------|
G-------------------------------------|
D---10---/5-6-3---/10---5-6-8--10-8---|
A-------------------------------------|
E-------------------------------------|

E------------------------------------------|
B------------------------------------------|
G------------------------------------------|
D---10---/5-6-3--6---/10---5-6-8---6---3---|
A------------------------------------------|
E------------------------------------------|


Bridge (all notes played many times, listen to the rhytm in the song):
E---------------------|
B---------------------|
G---------------------|
D---------------------|
A---8---7---11---10---|
E---------------------|


Solo 2:
E-------------------|
B-------------------|
G-------------------|
D---5-6-8---5-6-8---|
A-------------------|
E-------------------| (x 2)

E-------------------|
B-------------------|
G-------------------|
D---6-5-3---2-5-2---|
A-------------------|
E-------------------|

E-----------------|
B-----------------|
G-----------------|
D---6-5-3---2-2---|
A-----------------|
E-----------------|
(and from the start of solo 2 again)

E--------------------|
B--------------------|
G--------------------|
D---10-6-8---5-6-8---|
A--------------------|
E--------------------|

E-----------------------|
B-----------------------|
G-----------------------|
D---10-6-8---10-11-10---|
A-----------------------|
E-----------------------|

E--------------------|
B--------------------|
G--------------------|
D---10-6-8---5-6-8---|
A--------------------|
E--------------------|

E-------------------------|
B-------------------------|
G-------------------------|
D---10-11-13---11-11-10---|
A-------------------------|
E-------------------------|

E------------------------|
B------------------------|
G------------------------|
D---13-11-10---8/10-11---|
A------------------------|
E------------------------|

E----------------------|
B----------------------|
G----------------------|
D---13-11-10---8-6-5---|
A----------------------|
E----------------------|

E-------------------|---|
B-------------------|---|
G-------------------|---|
D---6-5-3---2-5-2---|-3-|
A-------------------|---|
E-------------------|---|
        (x 2)
Добавлено: 06.04.2016
Другие материалы по этой песне:
  • Аккорды и текст

Страница создана 15.02.2016
http://primanota.ru/shamrain/goodbyes-painted-black-chords.htm
Привет, Гость.
Предлагаем пройти революционный курс по гитаре.
Подарок от PrimaNota.Ru, забирай!