PrimaNota.ru - самый крупный в мире бесплатный архив песенных текстов, аккордов, табулатур и нот


ShamRain - Ghosts I See - текст песни, таба, бас-таба, видео

Регистрация Запомнить меня
Войти через:  Facebook Google Twitter Vk Yandex Mail.ru

ShamRain - Ghosts I See - текст песни, таба, бас-таба, видео

Печатать
Просмотров: 103
Уроки эстрадного вокала в Санкт-Петербурге
-------------------------------------------------------------------------------
                          GHOSTS I SEE - ShamRain
-------------------------------------------------------------------------------

Tuning: Standard


Intro (repeated a thousand times in the background):
e|---------1-----------1-------1---------1-----|
B|------3---------3---------3---------3----3---|
G|---2--------2----------2--------2------------|
D|---------------------------------------------|
A|---------------------------------------------|
E|---------------------------------------------|

e|---------0-----------0-------0---------0-----|
B|------3---------3---------3---------3----3---|
G|---2--------2----------2--------2------------|
D|---------------------------------------------|
A|---------------------------------------------|
E|---------------------------------------------|


Pre-chorus (I'm not sure, if this is correct):
e|-----------------------------------|
B|-----------------------------------|
G|-----------------------------------|
D|---0---2---3---5---2---3---2---0---|
A|-----------------------------------|
E|-----------------------------------|


Chorus chords (when playing acoustic):
Am Em F C


Solo 1:
e|------------------------------------------------------------------|
B|------------------------------------------------------------------|
G|------------------------------------------------------------------|
D|---2/7---/9--9/2/10-10-10-10/12-12-12-12-9---9-10-9-9-7---7/2-2---|
A|------------------------------------------------------------------|
E|------------------------------------------------------------------|

e|----------------------------------------------|
B|----------------------------------------------|
G|----------------------------------------------|
D|---2/7---/9--9/2/10-10-10-10/12-12-12-12-14---|
A|----------------------------------------------|
E|----------------------------------------------|

e|-----------------------------------------------------------------------|
B|-----------------------------------------------------------------------|
G|-------------14------17-17-16-14-14----17-17-16----------16-16-14------|
D|---14-12-14-------14----------------14----------17-17-14----------14---|
A|-----------------------------------------------------------------------|
E|-----------------------------------------------------------------------|

e|----------------------------------------------------------------|
B|----------------------------------------------------------------|
G|----------------------------------------------------------------|
D|---14---14-17-17-15---14-15-14-14---14-12-10-12-10-12-9---/14---|
A|----------------------------------------------------------------|
E|----------------------------------------------------------------|

e|-------------------------------------|
B|-------------------------------------|
G|-------------------------------------|
D|---14-16-16---17-16-17-16-------14---|
A|--------------------------17-14------|
E|-------------------------------------|


Bridge (not sure if these are correct):
e|--------------|
B|--------------|
G|--------------|
D|---17-16-17---|
A|--------------|
E|--------------|


Chorus background:
e|-----------------------|
B|-----------------------|
G|-----------------------|
D|---9-10-9---10-12-10---|
A|-----------------------|
E|-----------------------|
   (repeated many times)


e|---------------------------|
B|---------------------------|
G|---16---14---16-17-16------|
D|----------------------14---|
A|---------------------------|
E|---------------------------|


Solo 2:
e|-------------------------|
B|-------------------------|
G|-------------------------|
D|---/14-12-12-10-10-9-9---|
A|-------------------------|
E|-------------------------|
            (x 2)

e|------------------------|
B|------------------------|
G|------------------------|
D|---9---9-10-9-9-7-7-7---|
A|------------------------|
E|------------------------|

e|------------------------------|
B|------------------------------|
G|------------------------------|
D|---/14-12-12-10-10-9-9-9/14---|
A|------------------------------|
E|------------------------------|
              (x 2)

e|--------------------------------------------------------------------|
B|--------------------------------------------------------------------|
G|------------14---16-17-17-14---14-16-16-12---12-9-9-12---12/7-7/9---|
D|---14-12-14---------------------------------------------------------|
A|--------------------------------------------------------------------|
E|--------------------------------------------------------------------|

e|--------------------------------------------------------------------|
B|--------------------------------------------------------------------|
G|---/17-17-16-14---14-16-16-12---12/7-7-11---11-12-11-9---/5-5-4-2---|
D|--------------------------------------------------------------------|
A|--------------------------------------------------------------------|
E|--------------------------------------------------------------------|


Outro:
e|-------------------------|
B|-------------------------|
G|---5-5-4-0-----4-4-2-0---|
D|-------------------------|
A|-------------------------|
E|-------------------------|

e|----------------------------|
B|----------------------------|
G|---9-9-7-9-----9-9-7-9/10---|
D|----------------------------|
A|----------------------------|
E|----------------------------|
            (x 2)

e|-------------|
B|-------------|
G|---4-4-4-2---|
D|-------------|
A|-------------|
E|-------------|



************************************

| /   slide up
| \   slide down
| h   hammer-on
| p   pull-off
| ~   vibrato
| +   harmonic
| b   Bend
| br  Bend release

************************************
Добавлено: 06.04.2016
Другие материалы по этой песне:
  • Аккорды и текст

Страница создана 21.09.2014
http://primanota.ru/shamrain/ghosts-i-see-chords.htm
Привет, Гость.
Предлагаем пройти революционный курс по гитаре.
Подарок от PrimaNota.Ru, забирай!