PrimaNota.ru - самый крупный в мире бесплатный архив песенных текстов, аккордов, табулатур и нот


ShamRain - Fail - таба, бас-таба, видео

Регистрация Запомнить меня
Войти через:  Facebook Google Twitter Vk Yandex Mail.ru

ShamRain - Fail - таба, бас-таба, видео

Печатать
Просмотров: 35
-------------------------------------------------------------------------------
                               FAIL - ShamRain
-------------------------------------------------------------------------------

Tuning: Standard


Main riff (distorted sound):
e|-------------------------------------|
B|-------------------------------------|
G|-------------------------------------|
D|---5---5-7-5-7---0-2-3-2---0-2-3-----|
A|---------------------------------3---|
E|-------------------------------------|

e|--------------------------------------|
B|--------------------------------------|
G|--------------------------------------|
D|---5---5-7-5-7---7-10-9-9---7-9-7-----|
A|----------------------------------7---|
E|--------------------------------------|


Verse (clean sound):
e|--------------------------|
B|--------------------------|
G|--------------------------|
D|---7---7----5-7-9-7-9-7---|
A|---------7----------------|
E|--------------------------|


Solo (distorted sound):
e|----------------------------------------|
B|----------------------------------------|
G|----------------------------------------|
D|-------0-2--5---2-0--3---2-0------------|
A|---3--------------------------0---2-3---|
E|----------------------------------------|

e|-------------------------------------------------------------------------------|
B|-------------------------------------------------------------------------------|
G|-------------------------------------------------------------------12--12-14---|
D|------------------------------------------------------12-12--12-14-------------|
A|---7---7-5---5-0-5-5---10-12-12---12-14-14--14-15--15--------------------------|
E|-----------8-------------------------------------------------------------------|

e|-------------------------------------|
B|-------------------------------------|
G|---12--9-----------------------------|
D|-----------10-12-12-12-12-14-14-14---|
A|-------------------------------------|
E|-------------------------------------|(x 2)

e|-------------------------------------------------------------------------------------|
B|-------------------------------------------------------------------------------------|
G|---/14---14-14-12-12--12-------------------------------------------------------------|
D|--------------------------14-14-14-12-12-12---14--14-14-12-12--12---10-10-10-9-9-9---|
A|-------------------------------------------------------------------------------------|
E|-------------------------------------------------------------------------------------|

e|---------------------------------------|
B|----------------------------17-17-17---|
G|---14---17---17-19-19-19-19------------|
D|---------------------------------------|
A|---------------------------------------|
E|---------------------------------------| (x 2)

e|---------------------------------------------------------------------------|
B|-----------------------------------------------13---------------13-13-13---|
G|--------------5-----------7-7-7-/14---14-12-14------14-14-14-14------------|
D|---7---7--5-7-----7-7-7-7--------------------------------------------------|
A|---------------------------------------------------------------------------|
E|---------------------------------------------------------------------------|


************************************

| /   slide up
| \   slide down
| h   hammer-on
| p   pull-off
| ~   vibrato

************************************
Добавлено: 06.04.2016
Другие материалы по этой песне:
  • Аккорды и текст

Страница создана 15.02.2016
http://primanota.ru/shamrain/fail-chords.htm
Привет, Гость.
Предлагаем пройти революционный курс по гитаре.
Подарок от PrimaNota.Ru, забирай!