PrimaNota.ru - самый крупный в мире бесплатный архив песенных текстов, аккордов, табулатур и нот


ShamRain - The Empty Flow - таба, видео

Регистрация Запомнить меня
Войти через:  Facebook Google Twitter Vk Yandex Mail.ru

ShamRain - The Empty Flow - таба, видео

Печатать
Просмотров: 61
ShamRain - The Empty Flow
Tuning: Standard


Piano transition of intro to guitar:
E---7---------7---------5--------|
B-----8---------7---------5------|
G-------9---------7---------5----|
D--------------------------------|
A--------------------------------|
E--------------------------------|


Distorted guitar in the background:
E-----------------------------------------|
B---5---5/3---3/5---5/3---3/1---0---0-5---|
G-----------------------------------------|
D-----------------------------------------|
A-----------------------------------------|
E-----------------------------------------|


Chorus:
Em Bm Am


Break (slow strum, string by string):
Em Bm Am A

Outro melody in the background
E---5-----5------------3-----3-----------5-----5---------|
B-----5-----5---5--------3-----3---3-------6-----6---6---|
G-------6-----6------------3-----3-----------7-----7-----|
D--------------------------------------------------------|
A--------------------------------------------------------|
E--------------------------------------------------------|


Outro - distorted guitar in the background:
E---------------------|
B---------------------|
G---2-5---2-7---2-3---|
D---------------------|
A---------------------|
E---------------------|
Добавлено: 15.02.2016
Другие материалы по этой песне:
  • Аккорды и текст

Страница создана 15.02.2016
http://primanota.ru/shamrain/empty-flow-chords.htm
Привет, Гость.
Предлагаем пройти революционный курс по гитаре.
Подарок от PrimaNota.Ru, забирай!