PrimaNota.ru - самый крупный в мире бесплатный архив песенных текстов, аккордов, табулатур и нот


ShamRain - Drifter - таба, бас-таба, видео

Регистрация Запомнить меня
Войти через:  Facebook Google Twitter Vk Yandex Mail.ru

ShamRain - Drifter - таба, бас-таба, видео

Печатать
Просмотров: 28
Уроки эстрадного вокала в Санкт-Петербурге
ShamRain - Drifter
Tuning: Standard

I know most of the song is played with keyboards.
But I transitioned the main keyboard parts for guitar as well.


Intro:
E|------------0---------------------------|
B|---------0-----0--------------------0---|
G|-----0-----------0----------------0-----|
D|---2----------------------------0-------|
A|----------------------------------------|
E|----------------------------------------|

E|-------------0--------------|
B|-----------0---0-------0----|
G|--------0-------------------|
D|-----2------------------0---|
A|---3--------------2---------|
E|----------------------------|


Verse background:
E|------------0---------------------------|
B|---------0-----0--------------------0---|
G|-----0-----------0----------------0-----|
D|---2----------------------------0-------|
A|----------------------------------------|
E|----------------------------------------|

E|------------0------------------|
B|--------------0------------0---|
G|--------0-------0------0-------|
D|-----2---------------0---------|
A|---3---------------------------|
E|-------------------------------|

E|------------0---------------------------|
B|---------0-----0--------------------0---|
G|-----0-----------0----------------0-----|
D|---2----------------------------0-------|
A|----------------------------------------|
E|----------------------------------------|

E|-------------0--------------|
B|-----------0---0-------0----|
G|--------0-------------------|
D|-----2------------------0---|
A|---3--------------2---------|
E|----------------------------|


Main riff:
E|-----7---------------------------|
B|---5---8-(8)-----------8-8---7---|
G|---------------------------9-----|
D|----------------7-5--------------|
A|---------------------------------|
E|---------------------------------|

E|-----7---------------------------|
B|---5---8-(8)---7-7-8----8-8-7----|
G|---------------------------------|
D|--------------------10-------9---|
A|---------------------------------|
E|---------------------------------|

E---7-8h10---7-8-7----------7-----
B--------------------10-8-----7---
G---------------------------------
D---------------------------------
A---------------------------------
E---------------------------------

E|-----------------------------------------------------|
B|---8-8-8-7-7-7---------------------------------------|
G|---------------7-7-7-9-9-9-9-9-9-9-9-9-9-7-7-7-------|
D|-----------------------------------------------7-7---|
A|-----------------------------------------------------|
E|-----------------------------------------------------|

E|---------------------|
B|---------------------|
G|---------------------|
D|---7-9-9-9-9-9-9-9---|
A|---------------------|
E|---------------------|


Pre-chorus:
E|---12--10-----------------10--8--7--7-8--------|
B|-----------12--12h13--------------------7--7---|
G|---------------------12------------------------|
D|-----------------------------------------------|
A|-----------------------------------------------|
E|-----------------------------------------------|

E|------------------------------------|
B|------------------------------------|
G|--------5-4-------------------------|
D|---5--5-----4---4-4-5-2---4-4-2-----|
A|--------------------------------2---|
E|------------------------------------|


Chorus chords (for acoustic):
Em G


Bridge (played with bass, but suits guitar as well):
E|--------------------------------|
B|--------------------------------|
G|--------------------------------|
D|--------------------------------|
A|---7/10-10---10-9-10---10-9/2---|
E|--------------------------------|
Добавлено: 06.04.2016
Другие материалы по этой песне:
  • Аккорды и текст

Страница создана 15.02.2016
http://primanota.ru/shamrain/drifter-chords.htm
Привет, Гость.
Предлагаем пройти революционный курс по гитаре.
Подарок от PrimaNota.Ru, забирай!